Guitaretab - guitar tabs
Song name
# A B C D E F G H I J K L M N O P Q R S T U V W X Y Z
Home / W / Wolfgang / Beast tab

Wolfgang - Beast tab

                           "BEAST" BY WOLFGANG
                       transcribed by: freongang
                  visit me at: freongang_81@yahoo.com  
                         freongang_08@yahoo.com                   

  NOTE: TNX TO WOLF GEMORA FOR SOME INFO ABOUT YOUR BAND,, AT SA MGA 
 USAPANG BANDA NATIN, APROACHABLE KA PLA,, HNDI KA SUPLADO, ISANG TAWAG KO 
 LNG NG "WOLF"!! LINGON AT LAPIT KA AGAD,,HEHEHEHE!!!, BUT NA MENTAL 
 BLOCK AKO NUNG KAUSAP NA KTA, HNDI KO TULOY NAITANONG KUNG SAN KO MAKIKITA 
 YNG IDOL KONG SI MANUEL,, HEHEHE!!! ASTIG KA TLGA,,ASTIG KAYO, ASTIG ANG 
 WOLFGANG...TNX

solo:  (FOR WOLFGANG FANS USE ONLY)
e|----------15--------------------------------------------|
B|--/13b-------13b13b-------13----------------(let ring)-|
G|------------------------15----15----13-15-13----13b-----|
D|---------------------------------------------15---------|
A|--------------------------------------------------------|
E|--------------------------------------------------------|
[ Tab from: http://www.guitaretab.com/w/wolfgang/55381.html ]
e|---------------------15--------------------------------------------|
B|----17b-17b-17b-17b-----17---15-17-15------------------------------|
G|-13-----------------------------------19-17-15-17-15---------------|
D|------------------------------------------------------19-17-15---15|
A|---------------------------------------------------------------17--|
E|-------------------------------------------------------------------|

e|-------------------------21----19-----------------------------------|
B|-----------------------------------21-19-17-19-17-------------------|
G|--------------------------------------------------20-19-17----17----|
D|-17-15----15---------17-----17-----------------------------19----19-|
A|-------17-----17----------------------------------------------------|
E|------------------18------------------------------------------------|

e|------14b--------------------------------------------------|
B|--16b-----16b--14-16-14---13-15-13---12-14-12---10-12-10---|
G|-----------------------------------------------------------|
D|-----------------------------------------------------------|
A|-----------------------------------------------------------|
E|-----------------------------------------------------------|

e|----------------------------------------|
B|--17b17b-17b17b----15-17-15-----------|
G|----------------------------------------|
D|---------------------------------X/-----|
A|---------------------------------X/-----|
E|--------------------------------17/-----|
         <<<>>>



Related for Beast tab