Song name
# A B C D E F G H I J K L M N O P Q R S T U V W X Y Z

Wolfmother - Vagabond tab

Transcribed by Danleary

Hello Wolfmother.net!

Key

/: Slide into
h: Hammer on
p: Pull off
_____________________________________________________________________________

Intro/Chorus 

Acoustic, switches over to electric with distortion at 1:07

Knowing how to play open A, C, D, and G chords will help very much for this 
song. 

Finger style
Let Ring

   A

 0:19                    0:22                 0:24       
|-------------------------------------------------|
|----2---2----5---3-2------2---2------------------|
|----2---2----------2------2---2---4p2-------2----|
|----2---2------------0----2---2---------2h4------|
|--0-------0----0-------0--------0-----0-------0--|
|-------------------------------------------------|

Repeat

_____________________________________________________________________________

Bridge

Play this part once, then go back to the intro. This occurs again at 0:57,
1:16, 1:57 and 2:48

Let Ring
                                   
 0:48                  0:50                0:52

   G                   D
|----3---3----3---3----------2---2-----3---0-2--|
|----0---0----0-0-0----------3---3-----3---3-3--|
|----0---0----0-0-0----------2---2-----2---2-2--|
|----0---0----0-0-0------0---0---0-----0---0-0--|
|----2---2----2---2----0-----------0---0---0-0--|
|--3-------3------------------------------------|

_____________________________________________________________________________

This is actually two guitar parts written as one. The first guitar 
continues the bridge riff in it's entirety, and the second slides the D 
chord up an octave. 

Let Ring

 1:26                          1:29                  1:30

   G                   D     
|----3---3----3---3---------2---/14-14-14-14-14-14-14-14--|
|----0---0----0-0-0---------3---/15-15-15-15-15-15-15-15--|
|----0---0----0-0-0---------2---/14-14-14-14-14-14-14-14--|
|----0---0----0-0-0------0--0-----------------------------|
|----2---2----2---2----0----------------------------------|
|--3-------3----------------------------------------------|

_____________________________________________________________________________

Climax

This part's fingering is almost identical to the intro, but it's brought up 
an octave, then descends down the neck.

Let Ring
                                       
 1:30                          1:33                1:34    
 
   A
|-----------------------------------------------------------------------|
|--14---------17-----15p14------------14-14----------------------14-----|
|--14-14-------------------14---------14-14---14--16p14----------14-----|
|--14-14------------------------------14-14-------------14-14h16----14--|
|-----------------------------------------------------------------------|
|-----------------------------------------------------------------------|

 1:35                          1:37                               1:39

   G                  
|----------------------------------------------------------------------|
|--12-12------15----13p12-12-12------12-12----------------------12-----|
|--12-12---12-------------12-12------12-12---12--14p12----------12-----|
|--12-12------------------12-12------12-12-------------12-12h14----12--|
|----------------------------------------------------------------------|
|----------------------------------------------------------------------|

 1:40                       1:42

   D
|-----------------------------------------------------|
|--7-7-----10----8p7-7-7------7-7----------------7----|
|--7-7---7-----------7-7------7-7------9p7-------7----|
|--7-7---------------7-7------7-7----------7-7h9---7--|
|-----------------------------------------------------|
|-----------------------------------------------------|

 1:44

Back to Intro/Chorus. 

 2:02

Back to Climax

 2:15                            2:19                  2:23           2:24

   C                  D                          A
|-------------0---0-------2-2------3-2-------------------------------------|
|-----1-1-------1-1-------3-3------3----3--------2-----------2-------------|
|-----0-0-----------------2-2---2----------2-----2---------4-2--------2----|
|-----2-2-------------0-----0--------------------2----------------2h4-2----|
|--3--3-3----------------------------------------0----------------------0--|
|--------------------------------------------------------------------------|

_____________________________________________________________________________

Outro 

Back to Intro/Chorus

 2:53

   A
|-----|
|--2--|
|--2--|
|--2--|
|--0--|
|-----|

The end.
Tap to rate this tab
# A B C D E F G H I J K L M N O P Q R S T U V W X Y Z