Song name
# A B C D E F G H I J K L M N O P Q R S T U V W X Y Z

Wolfmother - Woman tab

This is the improvisation for the synth
solo to Woman. It's been needed on here for
a while!!!!!



heavy distortion (1:36)
|--------------------------------------------------------------|
|------------15-15--x------------15-15--x------------15-15--x--|
|--12/13/14--14-14--x--12/13/14--14-14--x--12/13/14--14-14--x--|
|--12/13/14---------x--12/13/14---------x--12/13/14---------x--|
|--------------------------------------------------------------|
|--------------------------------------------------------------|

|------------12--x--|
|------------12--x--|
|--12/13/14------x--|
|--12/13/14------x--|
|-------------------|
|-------------------|

|--------------------------------------------------------------|
|------------15-15--x------------15-15--x------------15-15--x--|
|--12/13/14--14-14--x--12/13/14--14-14--x--12/13/14--14-14--x--|
|--12/13/14---------x--12/13/14---------x--12/13/14---------x--|
|--------------------------------------------------------------|
|--------------------------------------------------------------|

|------------12--x--|
|------------12--x--|
|--12/13/14------x--|
|--12/13/14------x--|
|-------------------|
|-------------------|

|-----------------------------|--------------------------------------------|
|--/12~~--12--12--12--12~~----|--12-12----12-15p12--12--12----12-15p12-12--|
|--/12~~----12--12--12--12~~--|--12-12h14-12-12-----12--12h14-12-12----12--|
|-----------------------------|--------------------------------------------|
|-----------------------------|--------------------------------------------|
|-----------------------------|--------------------------------------------|

|------------17~--|--17------15------17------15------|
|------------17~--|--17--17--17--17--17--17--17--17--|
|--13h15/17-------|------16------16------16------16--|
|--14---/16-------|----------------------------------|
|-----------------|----------------------------------|
|-----------------|----------------------------------|

|--17------15------17------15------|------17--x--15~~--|
|--17--17--17--17--17--17--17--17--|--17--17--x--15~~--|
|------16------16------16------16--|--16------x--------|
|----------------------------------|-------------------|
|----------------------------------|-------------------|
|----------------------------------|-------------------|

|--15/17--17~--|--17------15------17------15------|-------------------x--|
|--15/17--17~--|--17--17--17--17--17--17--17--17--|--15h17p15/13--15--x--|
|--------------|------16------16------16------16--|--16------/14--14--x--|
|--------------|----------------------------------|----------------------|
|--------------|----------------------------------|----------------------|
|--------------|----------------------------------|----------------------|
end solo (1:57)

That's pretty much it. Feel free to make adjustments
where you think they're needed, but this should give you 
a general idea of how to play the solo.

Rhythym behind solo:

|-------------------------------------|
|-------------------------------------| repeat as
|-------------------------------------| necessary
|-------0--------0--------0--------2--|
|-0-1-2----0-1-2----0-1-2----0-1-2----|
|-------------------------------------|

tabbed by some kid who wishes he could play guitar
Tap to rate this tab
 
# A B C D E F G H I J K L M N O P Q R S T U V W X Y Z