Song name
# A B C D E F G H I J K L M N O P Q R S T U V W X Y Z

Wolfmother - Phoenix tab

Transcribed by Danleary

Hello Wolfmother.net!

Standard Tuning

Key

 ^  : Bend [1/4, 1/2, 1, etc.]
 v  : Bring bend back down
 /  : Slide into
 \  : Slide out of
 h  : Hammer on
 p  : Pull Off
(-) : Do not pick note
 =  : Vibrato
 X  : Mute
_____________________________________________________________________________

Intro

Repeat 2X - The second time through, hit the open low E string instead of the open A.

0:00

|----------------------------------------|
|----------------------------------------|
|----------------------------------------|
|----------------------------------------|
|------14-----12-----11-----11^v(11)-----|
|--0-0----0-0----0-0----0-0----------12--|

|----------------------------------------|
|----------------------------------------|
|----------------------------------------|
|--------------------11-----11^v(11)-----|
|------14-----12--------0-0----------14--|
|--0-0----0-0----0-0---------------------|
_____________________________________________________________________________

Verse

Rhythm varies slightly throughout the song.

|--------------------------------------------------|
|--------------------------------------------------|
|--------------------------------------------------|
|--------------------------------------------------|
|--12h14-14-12h14-14-12h14-14-12h14-14-12h14-14-X--|
|--12----12-12----12-12----12-12----12-12----12-X--|

|----------------------------------------------------|
|----------------------------------------------------|
|----------------------------------------------------|
|----------------------------------------------------|
|--14h16-16-14h16-16-X-10h12-12-10h12-12-10h12-12-X--|
|--14----12-14----14-X-10----10-10----10-10----10-X--|

 Go back and play the first bar of the verse once.

|----------------------------------------------------|
|----------------------------------------------------|
|----------------------------------------------------|
|----------------------12h14-14-12h14-14-12h14-14-X--|
|--14h16-16-14h16-16-X-12----12-12----12-12----12-X--|
|--14----12-14----14-X-------------------------------|
_____________________________________________________________________________

Chorus

   G         A         B         C
|------------------------------------------------------|
|--12-12-----14-14-----15-15-----17-17-17-17-17-17-17--|
|--12-12-----14-14-----15-15-----17-17-17-17-17-17-17--|
|--12-12-----14-14-----15-15-----17-17-17-17-17-17-17--|
|--10-10-----12-12-----13-13-----15-15-15-15-15-15-15--|
|------------------------------------------------------|

   G    D    A    E    B    F    C
|------------------------------------------------------|
|--12--------14--------15--------17-17-17-17-17-17-17--|
|--12---11---14---13---15---14---17-17-17-17-17-17-17--|
|--12---12---14---14---15---15---17-17-17-17-17-17-17--|
|--10---12---12---14---13---15---15-15-15-15-15-15-15--|
|-------10--------12--------13-------------------------|

Bridge

|------------------------------------------|
|------------------------------------------|
|------------------------------------------|
|------------------------------------------|
|--------------------------------------12--|
|--12------13----10------12------13--------|

Solo

|------------------------------------------------------------15-----|
|-------------------------------------------15-17-17===-17------17--|
|--14====---12----12---------------12-14/16-------------------------|
|--------------14----14------12-14----------------------------------|
|-------------------------------------------------------------------|
|-------------------------------------------------------------------|

    [1]
|--17^-----17-15---------------15--------------------|
|-----------------17-----15h17----17---17===-17====--|
|----------------------------------------------------|
|----------------------------------------------------|
|----------------------------------------------------|
|----------------------------------------------------|

                                        [1]
|-------------------------------------------------------|
|--15---15----------------------------------------------|
|-----16---16---14--12-------12----12--14^----14-12-----|
|-----------------------14------14------------------14--|
|-------------------------------------------------------|
|-------------------------------------------------------|
                                  
                                  [1/2]     
|---------------------------------17^----15-------15-----|
|----------------------------------------------17----17--|
|--------12-----12h14-12^--------------------------------|
|--12h14----14------------14-----------------------------|
|--------------------------------------------------------|
|--------------------------------------------------------|

                         [1]                                [1/4]
|--------15----15-17^---17^------17-15----15----------------15^--|
|--15h17----17-------------------------17----17-17--17---17------|
|----------------------------------------------------------------|
|----------------------------------------------------------------|
|----------------------------------------------------------------|
|----------------------------------------------------------------|

                                                               [1/2]
|-------------------------------------------------------------------|
|--17-15-17-15----15------------------------------------------------|
|--------------16----16-14-12-14-12===------12----12-14-12-----14^--|
|----------------------------------------14----14-------------------|
|-------------------------------------------------------------------|
|-------------------------------------------------------------------|

|----------------------------------------------------|
|----------------------------------------------------|
|--14-12---12----------------------------------------|
|--------14--14-14-14----14--14----14--14------------|
|----------------------------------------------------|
|----------------------------------------------------|

Guitar II enters here, same thing as Guitar I but with varying nuances.

    [1]                     [1]                    [1]   [1]
|------------------------------------------------------------|
|------------------------------------------------------------|
|--14^-14-12-14===---12-14-14^--14-12-14----12-14-14^---14^--|
|------------------------------------------------------------|
|------------------------------------------------------------|
|------------------------------------------------------------|

                      [1]                                       [1]  [1]
|--------------------17^--17-15----15---------------15----15---17^--17^--|
|-------------------------------17----17===---15h17----17----------------|
|--14-12-14====----------------------------------------------------------|
|------------------------------------------------------------------------|
|------------------------------------------------------------------------|
|------------------------------------------------------------------------|
 
                                 {1/4}      [1/4]        [1] 
|--17-15----15-----15----15------15^--------15^-----15--17^--|
|--------17----17-----17----17----------17-------17----------|
|------------------------------------------------------------|
|------------------------------------------------------------|
|------------------------------------------------------------|
|------------------------------------------------------------|

Guitar II breaks off from guitar I for the following bar, which will be 
written as two separate parts.

Guitar I
                                                        [1/2]
|--17-15----15------------------------------------------------|
|--------17----17--15----15-----------------------------------|
|---------------------16----16---14--12-----12-----------14^--|
|----------------------------------------14-----14------------|
|-------------------------------------------------------------|
|-------------------------------------------------------------|

Guitar II
                                                        [1/2]
|-------------------------------------------------------------|
|--15-17-15-17-15-17-15-17------------------------------------|
|--------------------------16-14-12----12-----------12---14^--|
|-----------------------------------14----14-12-14------------|
|-------------------------------------------------------------|
|-------------------------------------------------------------|

Guitar II rejoins guitar I, but the rhythm is noticeably varied and out of
sync in parts.

      [1/2]                       [1/2]   [1/2]   [1/2]  [1/2]  [1/2]  [1/2]
|---------------------------------------------------------------------------|
|--12--------12-------------------------12-----12-----12-----12-----12------|
|-----14^-------12----12----------14^------14^----14^----14^----14^----14^--|
|------------------14----14-12-14-------------------------------------------|
|---------------------------------------------------------------------------|
|---------------------------------------------------------------------------|

Guitar I

|----------------------------------------------|
|----------------------------------------------|
|--14----13----13/14-16--17--16--18-----12-----|
|------------------------------------------12--|
|----------------------------------------------|
|----------------------------------------------|

|-------------------------------------------------------|
|--------------------------------15---------------------|
|--14----13----13/14-16--17--16--------17\16--16\14-14--|
|-------------------------------------------------------|
|-------------------------------------------------------|
|-------------------------------------------------------|

|--------------------------------------------------|
|--------------------------------15---15--15--15\--|
|--14----13----13/14-16--17--16--------------------|
|--------------------------------------------------|
|--------------------------------------------------|
|--------------------------------------------------|

Guitar II

|--13----12---12/13-15----17---15\10--|
|-------------------------------------|
|-------------------------------------|
|-------------------------------------|
|-------------------------------------|
|-------------------------------------|

|--13----12---12/13-15----17---15/20---20--20\--|
|-----------------------------------------------|
|-----------------------------------------------|
|-----------------------------------------------|
|-----------------------------------------------|
|-----------------------------------------------|
_____________________________________________________________________________

Outro
                                         Repeat 4X
|------------------------------------------------------|
|------------------------------------------------------|
|------------------------------------------------------|
|--12------14------15------17-17-17-17-17-17-17-17-17\-|
|--10--12--12--14--13--15--15-15-15-15-15-15-15-15-15\-|
|------10------12------13------------------------------|
_____________________________________________________________________________

Coda

   E
|------|
|------|
|------|
|--12--|
|--12--|
|--10--|
Tap to rate this tab
# A B C D E F G H I J K L M N O P Q R S T U V W X Y Z