Song name
# A B C D E F G H I J K L M N O P Q R S T U V W X Y Z

Wolfmother - Colossal tab

   intro
 [----------------------------------]
 [----------------------------------]
 [-------5-------7-------5-7p5------]
 [-7-5h7---7-5h7---7-5h7------7-----]
 [-5-------5-------5----------------]
 [----------------------------------]

 [----------------------------------]
 [--------------------------9b-7b---]
 [-------5-------7-------5--9b-7b---]
 [-7-5h7---7-5h7---7-5h7------------]
 [-5-------5-------5----------------]
 [----------------------------------]
    
    verse
 [----------------------------------]
 [----------------------------------]
 [----------------------------------]
 [--------77--77--77--77-5----------] X5
 [--------55--55--55--55-3----------]
 [----------------------------------]
   
  chorus
 [----------------------------------]
 [----------------------------------]
 [----------------------------------]
 [-----------55555555---------------]
 [-77777777--33333333---------------]
 [-55555555-------------------------]

 [----------------------------------]
 [--------------------------9b-7b---]
 [-------5-------7-------5--9b-7b---]
 [-7-5h7---7-5h7---7-5h7------------]
 [-5-------5-------5----------------]
 [----------------------------------]

 [----------------------------------]
 [----------------------------------]
 [----------------------------------]
 [-----------55555555---------------]
 [-77777777--33333333---------------]
 [-55555555-------------------------]
 
   verse
 [----------------------------------]
 [----------------------------------]
 [----------------------------------]
 [--------77--77--77--77-5----------] X5
 [--------55--55--55--55-3----------]
 [----------------------------------]

 [----------------------------------]
 [----------------------------------]
 [----------------------------------]
 [----------55555555----------------]
 [-77777777-33333333----------------]
 [-55555555-------------------------]

-----------------]
 keyboard/bass   ]
-----------------]

 [----------------------------------]
 [----------------------------------]
 [----------------------------------]
 [-5-7--13-12--6-5--8-7-------------] X4
 [-3-5--11-10--4-3--6-5-------------]
 [----------------------------------]

 [----------------------------------]
 [----------------------------------]
 [----------------------------------]
 [-------------5--------------------]
 [-77-77-77-77-3--------------------]
 [-55-55-55-55----------------------]

  verse
 [----------------------------------]
 [----------------------------------]
 [----------------------------------]
 [--------77--77--77--77-5----------] X5
 [--------55--55--55--55-3----------]
 [----------------------------------]

  chorus
 [----------------------------------]
 [----------------------------------]
 [----------------------------------]
 [-----------55555555---------------]
 [-77777777--33333333---------------]
 [-55555555-------------------------]

 [----------------------------------]
 [--------------------------9b-7b---]
 [-------5-------7-------5--9b-7b---]
 [-7-5h7---7-5h7---7-5h7------------]
 [-5-------5-------5----------------]
 [----------------------------------]

 [----------------------------------]
 [----------------------------------]
 [----------------------------------]
 [-----------55555555---------------]
 [-77777777--33333333---------------]
 [-55555555-------------------------]


 [----------------------------------]
 [----------------------------------]
 [----------------------------------]
 [-5-7--13-12--6-5--8-7-------------] X4
 [-3-5--11-10--4-3--6-5-------------]
 [----------------------------------]

 [----------------------------------]
 [----------------------------------]
 [----------------------------------]
 [----------------------------------]
 [-3/5-555-3/5-555-3/5-555-7-7-7----]
 [----------------------------------]

 [----------------------------------]
 [----------------------------------]
 [----------------------------------]
 [----------------------------------]
 [-3/5-555-3/5-555-3/5-555--5-6-7---]
 [--------------------------3-4-5---]

 [----------------------------------]
 [----------------------------------]
 [----------------------------------]  
 [-5/7-777-5/7-777-5/7-777-9-9-9----]  
 [-3/5-555-3/5-555-3/5-555-7-7-7----]  
 [----------------------------------] \ 
                                      X2
 [----------------------------------] /
 [----------------------------------]                                     
 [----------------------------------]   
 [-5/7-777-5/7-777-5/7-777----------]  
 [-3/5-555-3/5-555-3/5-555--5-6-7---]
 [--------------------------3-4-5---]

 [----------------------------------]
 [----------------------------------]
 [----------------------------------]
 [101010-999-888-7------------------]X4
 [-8-8-8-777-666-5------------------]
 [----------------------------------]
 
 [----------------------------------]
 [----------------------------------]
 [----------------------------------]
 [-10-----x-9-----x-8-----x-7-----x-]X5
 [-8------x-7-----x-6-----x-5-----x-]
 [----------------------------------]
























































































































   I LIKE PIE!!!             AND CHEESE       I LIKE CHEESE!!!

























































































Tap to rate this tab
 
# A B C D E F G H I J K L M N O P Q R S T U V W X Y Z