Song name
# A B C D E F G H I J K L M N O P Q R S T U V W X Y Z

Wolfmother - Far Away tab

Wolfmother-Far away
-------------------
tabbed by Mckz

Intro

e|-5---5---4---74----|-5---5---4----4-2-|-0---0---2---2---|-4---4---2--2-----|
B|---7---7---5----5--|---7---7---5--5-4-|-2-2---2---4--4--|---5---5--4--4----|
G|-------------------|------------------|---------------4-|--------------4---|   
D|-------------------|------------------|-----------------|------------------|
A|-------------------|------------------|-----------------|------------------|
E|-------------------|------------------|-----------------|------------------|

Verse1 (play Intro 2x):

Don't you ever get together
When you're far away
When you're far away?
The nights are long
Well it's nothing that you never seen
But it's hard to say
But it's hard to say


A                    E         B
Don't listen to the words they say
A                              E    B
They could take it or leave it anyway
A                E       B     C#m  D
Just let it go another day


Verse2 (play Intro + chords):
A                   E
Step down from the mountainside
A                       E
Well i see that you're doing fine
C#m          B
When you're far away
            C#m    B
When you're far away
A                            E
Well you tell me that you're coming down
A                                 E
Well it's good to see that you're back around
          C#m    B         C#m   B
But it's hard to say i was far away


A                    E         B
Don't listen to the words they say
A                            E    B
They could never believe you anyway
A                 E      B  C#m D
Just let it go another day o o ow


Chorus:

E     B                 C#m           G#
I believe that love is gonna last forever
          A            E             A             C#m B
And it's all within my mind and it's all within my  mind    



Bass Riff Chorus:

G|--------------------------------------------|
D|--------------------------------------------|
A|------2-22-4-44---------------------44-22---|
E|-0-00-----------4-44-5-55-0-00-5-55---------|

Tap to rate this tab
 
# A B C D E F G H I J K L M N O P Q R S T U V W X Y Z