Song name
# A B C D E F G H I J K L M N O P Q R S T U V W X Y Z

Wolfmother - Woman tab

This is my first tab and I haven't played guitar that long so I'm sorry if I fucked it up.


Intro/Main Riff

E|--------------------|--------------------|
B|--------------------|--------------------|
G|--------------------|--------------------|
D|--------------------|--------------------|
A|------------------5-|------------------5-|
E|---0-0-0-0-0-0-5h7--|---0-0-0-0-0-0-5h7--|

E|--------------------|--------------------|
B|--------------------|--------------------|
G|--------------------|--------------------|
D|--------------------|--7--------5--------|
A|-----------------5--|--7--------5--------|
E|---0-0-0-0-0-0-5h7--|--5--------3--------|

Play that four times

Chorus
E|-----------------|------------------|-----------------|------------------|
B|-----------------|------------------|-----------------|------------------|
G|-----------------|--5---------------|-----------------|--5---------------|
D|--7--------------|--5---------------|--7--------------|--5---------------|
A|--7--------------|--3---------------|--7--------------|--3---------------|
E|--5--------------|------------------|--5--------------|------------------|

E|-----------------|------------------|-----------------|------------------|
B|-----------------|------------------|-----------------|------------------|
G|-----------------|--7---------------|-----------------|------------------|
D|--9--------------|--7---------------|-----------------|------------------|
A|--9--------------|--5---------------|-----------------|------------------|
E|--7--------------|------------------|-----------------|------------------|
Let the last chord ring.


Play Main Riff 3 Times


Chorus
E|-----------------|------------------|-----------------|------------------|
B|-----------------|------------------|-----------------|------------------|
G|-----------------|--5---------------|-----------------|--3---------------|
D|--7--------------|--5---------------|--7--------------|--3---------------|
A|--7--------------|--3---------------|--7--------------|--5---------------|
E|--5--------------|------------------|--5--------------|------------------|

E|-----------------|------------------|-----------------|------------------|
B|-----------------|------------------|-----------------|------------------|
G|-----------------|--7---------------|-----------------|------------------|
D|--9--------------|--7---------------|-----------------|------------------|
A|--9--------------|--5---------------|-----------------|------------------|
E|--7--------------|------------------|-----------------|------------------|
Let the last chord ring.


There's two ways of playing the Bridge so pick whichever suits you


Bridge #1
E|----------------------|----------------------|
B|----------------------|----------------------|
G|----------------------|----------------------|
D|----------------------|----------------------|
A|--7-5---5-------------|--7-5---5-------------|
E|------7---7-5-7-5-3-5-|------7---7-5-7-5-3-0-|


Bridge #2
E|----------------------|-----------------------|
B|----------------------|-----------------------|
G|----------------------|-----------------------|
D|--2-0---0-------------|--2-0---0--------------|
A|------2---2-0-2-0---0-|------2---2-0--2-0-----|
E|------------------3---|-------------------3-0-|


Play either of them 4 times and then play this riff:

E|----------------------|----------------------|
B|----------------------|----------------------|
G|----------------------|----------------------|
D|----------------------|----------------------|
A|--------5---------5---|--------5--------7----|
E|--0h5h7-----0h5h7-----|--0h5h7----0h5h7------|

Play this riff 15 times and when you play a crazy keyboard solo will enter. End the 
crazy solo with this:

E|---------------------|-----------------------|
B|---------------------|-----------------------|
G|---------------------|-----------------------|
D|---------------------|--7---------5----------|
A|--7-5---5------------|--7---------5----------|
E|------7---7-5-7-5----|--5---------3----------|


Then play the main riff 3 times then finish by playing either Bridge #1 or Bridge #2.
Tap to rate this tab
 
# A B C D E F G H I J K L M N O P Q R S T U V W X Y Z