Song name
# A B C D E F G H I J K L M N O P Q R S T U V W X Y Z

Wu Lyf - Triumph tab

Tuning: Standard
Capo: 0

Quite a hard song to tab as the lead is sometimes hard to make out but I think I have 
most of it right, please let me know in the comments if you have any corrections! I will 
try to tab the rest of the song at some point.


Background throughout song:
(palm muted)

e|--20t+pm------|-------20----------20---20------22-20------|
B|--------------|----------22-20-22--------22-20------------|
G|-(intro only)-|-------------------------------------------|
D|--------------|-------------------------------------------|
A|--------------|-------------------------------------------|
E|--------------|-------------------------------------------|

Intro/Verse:

e|-----------------------------------------------------------|
B|---13-13---20-----13-10-10-17------------------------------|
G|---12-12---17-----12-9--9--14------------------------------|
D|-----------------------------------------------------------|
A|-----------------------------------------------------------|
E|-----------------------------------------------------------|

e|-----------------------------------------------------------|
B|----17-13-13--20-20---------------------10-10-17-----------|
G|----14-12-12--17-17------19-19-19-17-14-9--9--14-----------|
D|-----------------------------------------------------------|
A|-----------------------------------------------------------|
E|-----------------------------------------------------------|

e|-----------------------------------------------------------|
B|--10-10-13-13---20--------15-15-15-13--10-10-17--------17--|
G|--9--9--12-12---17--------14-14-14-12--9--9--14----9-12----|
D|-----------------------------------------------------------|
A|-----------------------------------------------------------|
E|-----------------------------------------------------------|

e|-----------------------------------------------------------------|
B|--13-13---20-----13-13-15-15-15-13--10-10-17---17-17--17-17--17--|
G|--12-12---17-----12-12-14-14-14-12--9--9--14---14-14--14-14--14--|
D|-----------------------------------------------------------------|
A|-----------------------------------------------------------------|
E|-----------------------------------------------------------------|
Tap to rate this tab
# A B C D E F G H I J K L M N O P Q R S T U V W X Y Z