Song name
# A B C D E F G H I J K L M N O P Q R S T U V W X Y Z

Yardbirds - Stroll On tab

Help us improve GuitareTab! Take a short survey!
Standard Tuning (EADGBe)
Key
h- hammer on
p- pull off
~- vibrato
x- barely touch string, strum (i say this for beginners)

This is the main riff:

-------------------------------------|
-------------------------------------|
-------------------------------------|  x2
-------------------------------------|
-------------------------------------|
--3~-x-x-x-x-x-x--3-3-3~-x-x-x-x-x-x-|

-------------------------------------|
-------------------------------------|
-------------------------------------|
-------------------------------------|
-------------------------------------|
--5~-x-x-x-x-x-x--5-5-5~-x-x-x-x-x-x-|

-------------------------------------|
-------------------------------------|
-------------------------------------|
-------------------------------------|
-------------------------------------|
--3~-x-x-x-x-x-x--3-3-3~-x-x-x-x-x-x-|


And Then:

-------------------------------------------------------------------------|
-------------------------------------------------------------------------|
-------------------------------------------------------------------------|
-------------------------------------------------------------------------|
----0---0---0--2~~~~--0h2p0----------------------------------------------|
--3---0---0------------------3p0--3-3~~-x-x-x-x-x-x--3-3-3~-x-x-x-x-x-x--|


Listen to the song for the rythym, and congratulations you have good taste in
music. Rock on.
Related for Stroll On tab