Song name
# A B C D E F G H I J K L M N O P Q R S T U V W X Y Z

Yellowcard - Promises tab

-----------------------
 Promises ~ Yellowcard
-----------------------
When You're Through THinking, Say Yes   (2011)

Tabbed By: Russcool
(I know, pretty lame name)

Tuning: Drop D



INTRO  

  Guitar 1
E|--------------------------------------------------------|
B|----------------10------------9------------9------------|
G|---9---11---9--------9------------9------------9--------|
D|-------------------------11-----------11-----------11---|
A|--------------------------------------------------------|
D|--------------------------------------------------------|

E|----------------9-------------7------------7------------|
B|--------------------------------------------------------|
G|---9---11---9-------9-------------9------------9--------|
D|------------------------11------------11-----------11---|
A|--------------------------------------------------------|
D|--------------------------------------------------------|


  Guitar 2
E|-----------------------------------------------------|
B|-----------------------------------------------------|
G|-----------------------------------------------------|
D|---4-4-4-4-4-4-4-4-4-4-4-4-9-9-9-9-9-9-7-7-7-7-7-7---|
A|---4-4-4-4-4-4-4-4-4-4-4-4-9-9-9-9-9-9-5-5-5-5-5-5---|
D|---4-4-4-4-4-4-4-4-4-4-4-4-9-9-9-9-9-9-0-0-0-0-0-0---|


  Guitar 1
E|--------------------------------------------------------|
B|----------------10------------9------------9------------|
G|---9---11---9--------9------------9------------9--------|
D|-------------------------11-----------11-----------11---|
A|--------------------------------------------------------|
D|--------------------------------------------------------|

E|----------------9-------------7------------7------------|
B|--------------------------------------------------------|
G|---9---11---9-------9-------------9------------9--------|
D|------------------------11------------11-----------11---|
A|--------------------------------------------------------|
D|--------------------------------------------------------|


  Guitar 2
E|-----------------------------------------------------|
B|-----------------------------------------------------|
G|-----------------------------------------------------|
D|---4-4-4-4-4-4-4-4-4-4-4-4-9-9-9-9-9-9-7-7-7-7-7-7---|
A|---4-4-4-4-4-4-4-4-4-4-4-4-9-9-9-9-9-9-5-5-5-5-5-5---|
D|---4-4-4-4-4-4-4-4-4-4-4-4-9-9-9-9-9-9-0-0-0-0-0-0---|


VERSE


PRE-CHORUS

  Guitars 1 & 2
E|--------------------------------------|
B|--------------------------------------|
G|--------------------------------------|
D|---7-7-7-7-7-7-7-7-7-7-7-7-7-7-7-7----|
A|---7-7-7-7-7-7-7-7-7-7-7-7-7-7-7-7----|
D|---7-7-7-7-7-7-7-7-7-7-7-7-7-7-7-7----|

E|--------------------------------------|
B|--------------------------------------|
G|--------------------------------------|
D|---7-7-7-7-7-7-7-7-7-7-7-7-7-7-7-7----|
A|---7-7-7-7-7-7-7-7-7-7-7-7-7-7-7-7----|
D|---7-7-7-7-7-7-7-7-7-7-7-7-7-7-7-7----|


CHORUS

  Guitars 1 & 2
E|----------------------------------------------------------------------|
B|----------------------------------------------------------------------|
G|----------------------------------------------------------------------|   
D|---4-4-4-4-4-4-4-4-7-7-7-7-7-7-7-7-7-7-7-7-7-7-7-7-6-6-6-6-6-6-6-6----|
A|---4-4-4-4-4-4-4-4-5-5-5-5-5-5-5-5-7-7-7-7-7-7-7-7-7-7-7-7-7-7-7-7----|
D|---4-4-4-4-4-4-4-4-0-0-0-0-0-0-0-0-7-7-7-7-7-7-7-7-6-6-6-6-6-6-6-6----|

E|----------------------------------------------------------------------|
B|----------------------------------------------------------------------|
G|----------------------------------------------------------------------|   
D|---4-4-4-4-4-4-4-4-7-7-7-7-7-7-7-7-7-7-7-7-7-7-7-7-6-6-6-6-6-6-6-6----|
A|---4-4-4-4-4-4-4-4-5-5-5-5-5-5-5-5-7-7-7-7-7-7-7-7-7-7-7-7-7-7-7-7----|
D|---4-4-4-4-4-4-4-4-0-0-0-0-0-0-0-0-7-7-7-7-7-7-7-7-6-6-6-6-6-6-6-6----|

E|--------------------------------------|
B|--------------------------------------|
G|--------------------------------------|
D|---4-4-4-4-4-4-4-4-6-6-6-6-7-7-7-7----|
A|---4-4-4-4-4-4-4-4-7-7-7-7-7-7-7-7----|
D|---4-4-4-4-4-4-4-4-6-6-6-6-7-7-7-7----|


INTERLUDE


  Guitar 1
E|--------------------------------------------------------|
B|----------------10------------9------------9------------|
G|---9---11---9--------9------------9------------9--------|
D|-------------------------11-----------11-----------11---|
A|--------------------------------------------------------|
D|--------------------------------------------------------|

E|----------------9-------------7------------7------------|
B|--------------------------------------------------------|
G|---9---11---9-------9-------------9------------9--------|
D|------------------------11------------11-----------11---|
A|--------------------------------------------------------|
D|--------------------------------------------------------|


  Guitar 2
E|-----------------------------------------------------|
B|-----------------------------------------------------|
G|-----------------------------------------------------|
D|---4-4-4-4-4-4-4-4-4-4-4-4-9-9-9-9-9-9-7-7-7-7-7-7---|
A|---4-4-4-4-4-4-4-4-4-4-4-4-9-9-9-9-9-9-5-5-5-5-5-5---|
D|---4-4-4-4-4-4-4-4-4-4-4-4-9-9-9-9-9-9-0-0-0-0-0-0---|


VERSE


CHORUS

  Guitars 1 & 2
E|----------------------------------------------------------------------|
B|----------------------------------------------------------------------|
G|----------------------------------------------------------------------|   
D|---4-4-4-4-4-4-4-4-7-7-7-7-7-7-7-7-7-7-7-7-7-7-7-7-6-6-6-6-6-6-6-6----|
A|---4-4-4-4-4-4-4-4-5-5-5-5-5-5-5-5-7-7-7-7-7-7-7-7-7-7-7-7-7-7-7-7----|
D|---4-4-4-4-4-4-4-4-0-0-0-0-0-0-0-0-7-7-7-7-7-7-7-7-6-6-6-6-6-6-6-6----|

E|----------------------------------------------------------------------|
B|----------------------------------------------------------------------|
G|----------------------------------------------------------------------|   
D|---4-4-4-4-4-4-4-4-7-7-7-7-7-7-7-7-7-7-7-7-7-7-7-7-6-6-6-6-6-6-6-6----|
A|---4-4-4-4-4-4-4-4-5-5-5-5-5-5-5-5-7-7-7-7-7-7-7-7-7-7-7-7-7-7-7-7----|
D|---4-4-4-4-4-4-4-4-0-0-0-0-0-0-0-0-7-7-7-7-7-7-7-7-6-6-6-6-6-6-6-6----|

E|--------------------------------------|
B|--------------------------------------|
G|--------------------------------------|
D|---4-4-4-4-4-4-4-4-6-6-6-6-7-7-7-7----|
A|---4-4-4-4-4-4-4-4-7-7-7-7-7-7-7-7----|
D|---4-4-4-4-4-4-4-4-6-6-6-6-7-7-7-7----|


BRIDGE

E|------------------------------------------------------------------------------|
B|------------------------------------------------------------------------------|
G|---6--6--6--7--7--7--6--6--6--7--7--7--2--2--2--4--4--4--2--2--2--4--4--4-----|
D|---X--X--X--X--X--X--X--X--X--X--X--X--X--X--X--X--X--X--X--X--X--X--X--X-----|
A|---4--4--4--5--5--5--4--4--4--5--5--5--0--0--0--2--2--2--0--0--0--2--2--2-----|
D|------------------------------------------------------------------------------|

E|------------------------------------------------------------------------------|
B|------------------------------------------------------------------------------|
G|---6--6--6--7--7--7--6--6--6--7--7--7--2--2--2--4--4--4--2--2--2--4--4--4-----|
D|---X--X--X--X--X--X--X--X--X--X--X--X--X--X--X--X--X--X--X--X--X--X--X--X-----|
A|---4--4--4--5--5--5--4--4--4--5--5--5--0--0--0--2--2--2--0--0--0--2--2--2-----|
D|------------------------------------------------------------------------------|

E|------------------------------------------------------------------------------|
B|------------------------------------------------------------------------------|
G|---6--6--6--7--7--7--6--6--6--7--7--7--2--2--2--4--4--4--2--2--2--4--4--4-----|
D|---X--X--X--X--X--X--X--X--X--X--X--X--X--X--X--X--X--X--X--X--X--X--X--X-----|
A|---4--4--4--5--5--5--4--4--4--5--5--5--0--0--0--2--2--2--0--0--0--2--2--2-----|
D|------------------------------------------------------------------------------|

E|------------------------------------------------------|
B|------------------------------------------------------|
G|------------------------------------------------------|
D|---6--6--6--6--6--6--6--7--4--4--4--4--7--7--7--7-----|
A|---7--7--7--7--7--7--7--7--4--4--4--4--5--5--5--5-----|
D|---6--6--6--6--6--6--6--7--4--4--4--4--0--0--0--0-----|


CHORUS

  Guitars 1 & 2
E|----------------------------------------------------------------------|
B|----------------------------------------------------------------------|
G|----------------------------------------------------------------------|   
D|-------------------7-7-7-7-7-7-7-7-7-7-7-7-7-7-7-7-6-6-6-6-6-6-6-6----|
A|-------------------5-5-5-5-5-5-5-5-7-7-7-7-7-7-7-7-7-7-7-7-7-7-7-7----|
D|-------------------0-0-0-0-0-0-0-0-7-7-7-7-7-7-7-7-6-6-6-6-6-6-6-6----|

E|----------------------------------------------------------------------|
B|----------------------------------------------------------------------|
G|----------------------------------------------------------------------|   
D|---4-4-4-4-4-4-4-4-7-7-7-7-7-7-7-7-7-7-7-7-7-7-7-7-6-6-6-6-6-6-6-6----|
A|---4-4-4-4-4-4-4-4-5-5-5-5-5-5-5-5-7-7-7-7-7-7-7-7-7-7-7-7-7-7-7-7----|
D|---4-4-4-4-4-4-4-4-0-0-0-0-0-0-0-0-7-7-7-7-7-7-7-7-6-6-6-6-6-6-6-6----|

E|----------------------------------------------------------------------|
B|----------------------------------------------------------------------|
G|----------------------------------------------------------------------|   
D|---4-4-4-4-4-4-4-4-7-7-7-7-7-7-7-7-7-7-7-7-7-7-7-7-6-6-6-6-6-6-6-6----|
A|---4-4-4-4-4-4-4-4-5-5-5-5-5-5-5-5-7-7-7-7-7-7-7-7-7-7-7-7-7-7-7-7----|
D|---4-4-4-4-4-4-4-4-0-0-0-0-0-0-0-0-7-7-7-7-7-7-7-7-6-6-6-6-6-6-6-6----|

E|----------------------------------------------------------------------|
B|----------------------------------------------------------------------|
G|----------------------------------------------------------------------|   
D|---4-4-4-4-4-4-4-4-7-7-7-7-7-7-7-7-7-7-7-7-7-7-7-7-6-6-6-6-6-6-6-6----|
A|---4-4-4-4-4-4-4-4-5-5-5-5-5-5-5-5-7-7-7-7-7-7-7-7-7-7-7-7-7-7-7-7----|
D|---4-4-4-4-4-4-4-4-0-0-0-0-0-0-0-0-7-7-7-7-7-7-7-7-6-6-6-6-6-6-6-6----|

E|--------------------------------------|
B|--------------------------------------|
G|--------------------------------------|
D|---4-4-4-4-4-4-4-4-6-6-6-6-7-7-7-7----|
A|---4-4-4-4-4-4-4-4-7-7-7-7-7-7-7-7----|
D|---4-4-4-4-4-4-4-4-6-6-6-6-7-7-7-7----|


OUTRO

  Guitar 1
E|--------------------------------------------------------|
B|----------------10------------9------------9------------|
G|---9---11---9--------9------------9------------9--------|
D|-------------------------11-----------11-----------11---|
A|--------------------------------------------------------|
D|--------------------------------------------------------|

E|----------------9-------------7------------7------------|
B|--------------------------------------------------------|
G|---9---11---9-------9-------------9------------9--------|
D|------------------------11------------11-----------11---|
A|--------------------------------------------------------|
D|--------------------------------------------------------|


  Guitar 2
E|-----------------------------------------------------|
B|-----------------------------------------------------|
G|-----------------------------------------------------|
D|---4-4-4-4-4-4-4-4-4-4-4-4-9-9-9-9-9-9-7-7-7-7-7-7---|
A|---4-4-4-4-4-4-4-4-4-4-4-4-9-9-9-9-9-9-5-5-5-5-5-5---|
D|---4-4-4-4-4-4-4-4-4-4-4-4-9-9-9-9-9-9-0-0-0-0-0-0---|


  Guitar 1
E|--------------------------------------------------------|
B|----------------10------------9------------9------------|
G|---9---11---9--------9------------9------------9--------|
D|-------------------------11-----------11-----------11---|
A|--------------------------------------------------------|
D|--------------------------------------------------------|

E|----------------9-------------7-------------------------|
B|--------------------------------------------------------|
G|---9---11---9-------9-------------9---------------------|
D|------------------------11------------11~---------------|
A|--------------------------------------------------------|
D|--------------------------------------------------------|


  Guitar 2
E|-----------------------------------------------------|
B|-----------------------------------------------------|
G|-----------------------------------------------------|
D|---4-4-4-4-4-4-4-4-4-4-4-4-9-9-9-9-9-9-7--7--7~------|
A|---4-4-4-4-4-4-4-4-4-4-4-4-9-9-9-9-9-9-5--5--5~------|
D|---4-4-4-4-4-4-4-4-4-4-4-4-9-9-9-9-9-9-0--0--0~------|



Tap to rate this tab
 
# A B C D E F G H I J K L M N O P Q R S T U V W X Y Z