Song name
# A B C D E F G H I J K L M N O P Q R S T U V W X Y Z

Yellowcard - Ten tab

-------------------------------------------------------------------------------
                             Ten - Yellowcard
-------------------------------------------------------------------------------
Tabbed by: demonhunter2211
E-mail: demonhunter2211@yahoo.com

Tuning: E standard

Intro/verse

e|---------------------------------------------------------------------------|
B|---3--3--3--3--3--3--3--3--3--3--3--3--3--3--3--3--------------------------|
G|---------------------------------------------------------------------------|
D|---------------------------------------------------------------------------|
A|-3------------3-----------3--------2---------------------------------------|
E|-----------------------------2--3----0--0--0--0----------------------------|

Other part in verse:

e|------------------------------------------------------------------------------|
B|--3--3--3--3--3--3--3--3--3--3--3--3------------------------------------------|
G|------------------------------------------------------------------------------|
D|-0----------------------------------------------------------------------------|
A|-------------2--------2--3----------------------------------------------------|
E|------------------------------------------------------------------------------|

Chorus:

e|-----------------------------------------------------------------------------|
B|-3333333333333333333333333333333333------------------------------------------|
G|-0000000000000000000000000000000000------------------------------------------|
D|-2222222200000000222222222222222000------------------------------------------|
A|-2222222222222222333333333333333000------------------------------------------|
E|-0000000033333333---------------222------------------------------------------|

"and you will have all the love in my heart"

e|---------------------------------------------------------------------------|
B|-33333333333333333333333333333333------------------------------------------|
G|-00000000000000000000000000000000------------------------------------------|
D|-22222222000000002222222222222222------------------------------------------|
A|-22222222000000003333333333333333------------------------------------------|
E|-0000000022222222----------------------------------------------------------|

Bridge: (I'm fuzzy on the strumming pattern, or if the chords are even right, but I kind 
of just guessed on the strumming pattern)

e|-3333---2222---33322222333222223333---2222---3332222233322222--------------|
B|-3333---3333---33333333333333333333---3333---3333333333333333--------------|
G|-0000---2222---00000000000000000000---2222---0000000000000000--------------|
D|-2222---0000---00000000000000002222---0000---0000000000000000--------------|
A|-3333----------22222222222222223333----------2222222222222222--------------|
E|---------------0000000000000000--------------------------------------------|

I know that everything isn't correct, but I'm pretty confident I'm only missing 
very little things.

************************************

| /   slide up
| \   slide down
| h   hammer-on
| p   pull-off
| ~   vibrato
| +   harmonic
| x   Mute note
| b   Bend
| pb  Pre-bend
| br  Bend release
| pbr Pre-bend release
| brb Bend release bend

************************************
Tap to rate this tab
 
# A B C D E F G H I J K L M N O P Q R S T U V W X Y Z