Song name
# A B C D E F G H I J K L M N O P Q R S T U V W X Y Z

Yngwie Malmsteen - Cross The Line tab

Help us improve GuitareTab! Take a short survey!
Cross The Line, Yngwie J Malmsteen (intro)
Tuning: Half step down
x=slide


E||--------------------------|
B||--------------------3-----|
G||-2----2-------2----22-----|
D||-2----0-------2----00-----|
A||-0-32---3230-00-32--------|
E||-----3------3-----3-------|

E||--------------------------|
B||--------------------3-----|
G||-2----2-------2----22-----|
D||-2----0-------2----00-----|
A||-0-32---3230-00-32--------|
E||-----3------3-----3-------|

E||--------------------------|
B||--------------------3-----|
G||-2----2-------2----22-----|
D||-2----0-------2----00xxxx-|
A||-0-32---3230-00-32---xxxx-|
E||-----3------3-----3-------|

E||--------------------------|
B||--------------------3-----|
G||-2----2-------2----22-----|
D||-2----0-------2----00-----|
A||-0-32---3230-00-32--------|
E||-----3------3-----3-------|
Related for Cross The Line tab