Song name
# A B C D E F G H I J K L M N O P Q R S T U V W X Y Z

You Me At Six - Loverboy tab

I haven't seen any tabs for this new track off of 'Sinners Never Sleep' so had a crack 
at the guitar intro riff and chorus. First tab, hope it isn't too bad :).

The intro is repeated several times throughout the song.

Intro:

e|------------------------------|
B|------------------------------|
G|------------------------------|
D|------3-2-0-------------------|
A|3-5-5-------3-5---------------|
D|----------------0--0(let ring)|

Chorus: Not sure but it sounds about right.

e|----------------------------------|
B|----------------------------------|
G|3-----5----77-9-10-9-77-9-10-9----|
D|3(x6)-5(x6)77-9-10-9-77-9-8--9----| (x2)
A|1-----3----55-7-8--7-55-7-8--7----|
D|----------------------------------|


I'll try and figure out the rest. Good luck!:)
Tap to rate this tab
# A B C D E F G H I J K L M N O P Q R S T U V W X Y Z