Song name
# A B C D E F G H I J K L M N O P Q R S T U V W X Y Z

You Say Party We Say Die - The Gap tab

----------------------------------------------------------------------------
	             The Gap - You Say Party! We Say Die!
----------------------------------------------------------------------------
Album: Hit The Floor!
Tabbed By : Jaden Sherrard
e-mail: jaden29@hotmail.com

Tuning:Standard (both Guitar and Bass)

This is the part in the song where the guitar and bass play together...


G|-------------------|
D|-------------------|
A|-------------------|
E|----6---6---6---6--|

e|-----------------|
B|-----------------|
G|-----------------|
D|-----------------| (x2)
A|--4---4---4---4--|
E|--6---6---6---6--|

G|-------------------|
D|-------------------|
A|-------------------|
E|----2---2---2---2--|

e|-----------------|
B|-----------------|
G|-----------------|
D|-----------------| (x2)
A|--3---3---3---3--|
E|--1---1---1---1--|

Its That Easy

===============================================================================
Tap to rate this tab
# A B C D E F G H I J K L M N O P Q R S T U V W X Y Z