Song name
# A B C D E F G H I J K L M N O P Q R S T U V W X Y Z

You Say Party We Say Die - Heart Of Gold tab

Heart of Gold - You Say Party! We Say Die!
Tabbed by:Jaden Sherrard

Tuning: Standard

Intro 0:00 (let 'em all ring)
e|--------------------------------------------------------------------|
B|--------------------------------------------------------------------|
G|--------------------------------------------------------------------|
D|--5-------5-------5-----5-------5-------5-----5-------5-------5-----|
A|-----3-3-----3-3-----3-----3-3-----3-3-----3-----0-0-----0-0-----0--|
E|--------------------------------------------------------------------|

------------------------|
------------------------|
------------------------|
------------------------|
-5-------5-------5------|
----3-3-----3-3-----3---|

Verse 2:07 (you can either play this riff or a C & D chord instead)
e|----------------------------------------------------------------|
B|----------------------------------------------------------------|
G|--5-5-5-5-5-5-5-5-5-5-5-5-5-5-5-5-5-5-5-/(7)-7-7-7-7-7-7-7-7-7--|
D|--x-x-x-x-x-x-x-x-x-x-x-x-x-x-x-x-x-x-x------x-x-x-x-x-x-x-x-x--|
A|--3-3-3-3-3-3-3-3-3-3-3-3-3-3-3-3-3-3-3-/(5)-5-5-5-5-5-5-5-5-5--|
E|----------------------------------------------------------------|
    C                                       D

Ending 2:52
e|--0-------1------0------2---------|
B|--1-------1------0------3---------|
G|--0-(x8)--2-(x8)-0-(x8)-2-(x8)----|
D|--2-------3------2------0---------|
A|--3--------------2----------------|
E|-----------------0----------------|
    C       F      Em     D

That's about it, have fun with it!
Tap to rate this tab
# A B C D E F G H I J K L M N O P Q R S T U V W X Y Z