Song name
# A B C D E F G H I J K L M N O P Q R S T U V W X Y Z

Young Neil - Thrasher tab

-------------------------------------------------------------------------------
			     Thrasher - Evile
-------------------------------------------------------------------------------

Tabbed by: Mustaine
Email: kreator11@gmail.com


Tuning: E Flat


D#|------------------------------------------------------------------------------|
A#|------------------------------------------------------------------------------|
F#|------------------------------------------------------------------------------|
C#|------------------------------------------------------------------------------|
G#|------------------------------------------------------------------------------|
D#|-0-0-0-0-0--0-0-0--0-0-0-0-0-0--0-0-0-0-0--0-0-0--0-0-0-0-0-0--0-0-0-0-0--0-0-|
                                                                              

D#|------------------------------------------------------------------------------|
A#|------------------------------------------------------------------------------|
F#|------------------------------------------------------------------------------|
C#|------------------------------------------------------------------------------|
G#|------------------------------------------------------------------------------|
D#|--0--0-0-0-0-0-0--------------------------------------------------------------|
                                                                              

D#|------------------------------------------------------------------------------|
A#|------------------------------------------------------------------------------|
F#|------------------------------------------------------------------------------|
C#|--------------------------------2---------------------------------------------|
G#|--------------------------------2---------------------------------------------|
D#|-0-0-0-0-0--0-0-0--0-0-0-0-0-0--0---------------------------------------------|
 2nd guitar                         repeat above bars 3x                      

D#|------------------------------------------------------------------------------|
A#|------------------------------------------------------------------------------|
F#|------------------------------------------------------------------------------|
C#|------------------------------------------------------------------------------|
G#|------------------------------------------------------------------------------|
D#|-0-0-0-0-0--0-0-0--0-0-0-0-0-0--0-0-0-0-0--0-0-0--0-0-0-0-0-0--0-0-0-0-0--0-0-|
                                                                              

D#|------------------------------------------------------------------------------|
A#|------------------------------------------------------------------------------|
F#|------------------------------------------------------------------------------|
C#|------------------------------------------------------------------------------|
G#|------------------------------------------------------------------------------|
D#|-0--0-0-0-0-0-0---------------------------------------------------------------|
                                                                              

D#|------------------------------------------------------------------------------|
A#|------------------------------------------------------------------------------|
F#|------------------------------------------------------------------------------|
C#|-------------------------------3----------------------------------------------|
G#|-------------------------------1----------------------------------------------|
D#|-0-0-0-0-0--0-0-0--0-0-0-0-0-0------------------------------------------------|
                                                                              

D#|------------------------------------------------------------------------------|
A#|------------------------------------------------------------------------------|
F#|------------------------------------------------------------------------------|
C#|------------------------------------------------------------------------------|
G#|------------------------------------------------------------------------------|
D#|-0-0-0-0-0--0-0-0--0-0-0-0-0-0--0-0-0-0-0--0-0-0--0-0-0-0-0-0--0-0-0-0-0------|
                                                                              

D#|------------------------------------------------------------------------------|
A#|------------------------------------------------------------------------------|
F#|------------------------------------------------------------------------------|
C#|------------------------------------------------------------------------------|
G#|------------------------------2---3-2-----------------------------------------|
D#|--0-0-0--0-0-0-0-0-0--0-1-4-3---4---------------------------------------------|
                            repeat above 2 bars 2x                            

D#|------------------------------------------------------------------------------|
A#|------------------------------------------------------------------------------|
F#|------------------------------------------------------------------------------|
C#|------------------------------------------------------------------------------|
G#|---------2---3-2-4-3-2-3-2-------------2---3-2-4-3-2-3-2-------------2---3-2--|
D#|-0-1-4-3---4---------------4-3-0-1-4-3---4---------------4-3-0-1-4-3---4------|
                                                                              

D#|------------------------------------------------------------------------------|
A#|------------------------------------------------------------------------------|
F#|------------------------------------------------------------------------------|
C#|------------------------------------------------2-----------------------------|
G#|-4-3-2-3-2-------------2---3-2-4-3-2-3-2--------2-----------------------------|
D#|-----------4-3-0-1-4-3---4---------------4-3-2--0-----------------------------|
                                                                              

D#|------------------------------------------------------------------------------|
A#|------------------------------------------------------------------------------|
F#|----------------4---3---------------------------5---------4---3---------------|
C#|----------4\3---2---1---------------------------3---4\3---2---1---7-7---------|
G#|------3---2\1---------------------------------------2\1-----------5-5---------|
D#|--0-0-1-0-----0---0----0-0--0-0-0--0-0-0--0-0-0---0-----0---0-----5-5---------|
                               repeat above bar 2x                            

D#|------------------------------------------------------------------------------|
A#|------------------------------------------------------------------------------|
F#|------------------------------------------------------------------------------|
C#|------------------------------------------------------------------------------|
G#|----------3-------9\8-------------------3-------8\7-------------------3-------|
D#|-0-0-0-0--1--0-0--7\6--0-0-0-0-0-0-0-0--1--0-0--6\5--0-0-0-0-0-0-0-0--1--0-0--|
                                                                              

D#|------------------------------------------------------------------------------|
A#|------------------------------------------------------------------------------|
F#|---------------------------4/5--5---------------------------------------------|
C#|---------------------------2/3--3---------------------------------------------|
G#|-9\8-------------------3------------------------------------------------------|
D#|-7\6--0-0-0-0-0-0-0-0--1-0----------------------------------------------------|
                                                                              

D#|------------------------------------------------------------------------------|
A#|------------------------------------------------------------------------------|
F#|------------------------------------------------------------------------------|
C#|------------------------------------------------------------------------------|
G#|----------3-------9\8-------------------3-------8\7-------------------3-------|
D#|-0-0-0-0--1--0-0--7\6--0-0-0-0-0-0-0-0--1--0-0--6\5--0-0-0-0-0-0-0-0--1--0-0--|
                                                                              

D#|------------------------------------------------------------------------------|
A#|------------------------------------------------------------------------------|
F#|---------------------------5\4--4---------------------------------------------|
C#|---------------------------3\2--2---------------------------------------------|
G#|-9\8-------------------3------------------------------------------------------|
D#|-7\6--0-0-0-0-0-0-0-0--1-0----------------------------------------------------|
                                                                              

D#|------------------------------------------------------------------------------|
A#|------------------------------------------------------------------------------|
F#|------------------------------------------------------------------------------|
C#|-2-----------2---------------2--3/5---------------2-3-2-3---------------------|
G#|-0--0-0-0-0--0--0-0-0-0-0-0--0--1/3--0-0-0-0-0-0--0-1-0-1---------------------|
D#|------------------------------------------------------------------------------|
                                                                              

D#|------------------------------------------------------------------------------|
A#|------------------------------------------------------------------------------|
F#|------------------------------------------------------------------------------|
C#|-2-----------2---------------2--3/5---------------3---------------------------|
G#|-0--0-0-0-0--0--0-0-0-0-0-0--0--1/3--0-0-0-0-0-0--1--4------------------------|
D#|-----------------------------------------------------2------------------------|
                                                                              

D#|------------------------------------------------------------------------------|
A#|------------------------------------------------------------------------------|
F#|------------------------------------------------------------------------------|
C#|-2-----------2---------------2--3/5---------------2-3-2-3---------------------|
G#|-0--0-0-0-0--0--0-0-0-0-0-0--0--1/3--0-0-0-0-0-0--0-1-0-1---------------------|
D#|------------------------------------------------------------------------------|
                                                                              

D#|------------------------------------------------------------------------------|
A#|------------------------------------------------------------------------------|
F#|------------------------------------------------------------------------------|
C#|-2-----------2---------------2--3/5-------------------------------------------|
G#|-0--0-0-0-0--0--0-0-0-0-0-0--0--1/3--0-0-0-0-0-0--5-4-------------------------|
D#|------------------------------------------------------------------------------|
                                                                              

D#|------------------------------------------------------------------------------|
A#|------------------------------------------------------------------------------|
F#|------------------------------------------------------------------------------|
C#|-2-----------2---------------2--3/5-------------------------------------------|
G#|-0--0-0-0-0--0--0-0-0-0-0-0--0--1/3--0-0-0-0-0-0------------------------------|
D#|--------------------------------------------------6-5-------------------------|
                      guitar 2                                                

D#|------------------------------------------------------------------------------|
A#|------------------------------------------------------------------------------|
F#|------------------------------------------------------------------------------|
C#|-2-----------2---------------2--3/5---------------2-3-2-3---------------------|
G#|-0--0-0-0-0--0--0-0-0-0-0-0--0--1/3--0-0-0-0-0-0--0-1-0-1---------------------|
D#|------------------------------------------------------------------------------|
                                                                              

D#|------------------------------------------------------------------------------|
A#|------------------------------------------------------------------------------|
F#|------------------------------------------------------------------------------|
C#|-2-----------2---------------2--3/5---------------3---------------------------|
G#|-0--0-0-0-0--0--0-0-0-0-0-0--0--1/3--0-0-0-0-0-0--1--4------------------------|
D#|-----------------------------------------------------2------------------------|
                                                                              

D#|------------------------------------------------------------------------------|
A#|------------------------------------------------------------------------------|
F#|------------------------------------------------------------------------------|
C#|-2-----------2---------------2--3/5---------------2-3-2-3---------------------|
G#|-0--0-0-0-0--0--0-0-0-0-0-0--0--1/3--0-0-0-0-0-0--0-1-0-1---------------------|
D#|------------------------------------------------------------------------------|
                                                                              

D#|------------------------------------------------------------------------------|
A#|------------------------------------------------------------------------------|
F#|------------------------------------------------------------------------------|
C#|-2-----------2---------------2--3/5---------------3-----5---------------------|
G#|-0--0-0-0-0--0--0-0-0-0-0-0--0--1/3--0-0-0-0-0-0--1--4--3--6------------------|
D#|-----------------------------------------------------2-----4------------------|
                                                                              

D#|------------------------------------------------------------------------------|
A#|------------------------------------------------------------------------------|
F#|------------------------------------------------------------------------------|
C#|-2---------------2------------------------------------------------------------|
G#|-2---------------2-----------3-8----------------------------------9\8---8\5---|
D#|-0--0-0-0-0-0-0--0--0-0-0-0--1-6--6-6-6-6-6-6-6-6-6-6-6-6-6-6-6---7\6-0-6\3---|
                                                                              

D#|------------------------------------------------------------------------------|
A#|------------------------------------------------------------------------------|
F#|------------------------------------------------------------------------------|
C#|------------------------------------------------------------------------------|
G#|--------------5/8---8\7-------------------------------------------------------|
D#|-3-3-3-3-3-3--3/6-0-6\5--5-5-5-5-5-5------------------------------------------|
                          repeat above 2 bars 3x                              

D#|------------------------------------------------------------------------------|
A#|------------------------------------------------------------------------------|
F#|------------------------------------------------------------------------------|
C#|-2---------------2------------------------------------------------------------|
G#|-2---------------2-----------3-8----------------------------------9\8---8\5---|
D#|-0--0-0-0-0-0-0--0--0-0-0-0--1-6--6-6-6-6-6-6-6-6-6-6-6-6-6-6-6---7\6-0-6\3---|
                                                                              

D#|------------------------------------------------------------------------------|
A#|------------------------------------------------------------------------------|
F#|------------------------------------------------------------------------------|
C#|------------------------------------------2-----------------------------------|
G#|-5/8---8\7---7-5---------5-3----------3---2-----------------------------------|
D#|-3/6-0-6\5-------6-0-0-0-----5-0-0-0--1p0-0-----------------------------------|
                                                                              

D#|------------------------------------------------------------------------------|
A#|------------------------------------------------------------------------------|
F#|------------------------------------------------------------------------------|
C#|-2-----------2---------------2--3/5---------------2-3-2-3---------------------|
G#|-0--0-0-0-0--0--0-0-0-0-0-0--0--1/3--0-0-0-0-0-0--0-1-0-1---------------------|
D#|------------------------------------------------------------------------------|
           solo rhythm                                                        

D#|------------------------------------------------------------------------------|
A#|------------------------------------------------------------------------------|
F#|------------------------------------------------------------------------------|
C#|-2-----------2---------------2--3/5---------------3---------------------------|
G#|-0--0-0-0-0--0--0-0-0-0-0-0--0--1/3--0-0-0-0-0-0--1--4------------------------|
D#|-----------------------------------------------------2------------------------|
                                                                              

D#|------------------------------------------------------------------------------|
A#|------------------------------------------------------------------------------|
F#|------------------------------------------------------------------------------|
C#|-2-----------2---------------2--3/5---------------2-3-2-3---------------------|
G#|-0--0-0-0-0--0--0-0-0-0-0-0--0--1/3--0-0-0-0-0-0--0-1-0-1---------------------|
D#|------------------------------------------------------------------------------|
                                                                              

D#|------------------------------------------------------------------------------|
A#|------------------------------------------------------------------------------|
F#|------------------------------------------------------------------------------|
C#|-2-----------2---------------2--3/5---------------3-----5---------------------|
G#|-0--0-0-0-0--0--0-0-0-0-0-0--0--1/3--0-0-0-0-0-0--1--4--3---------------------|
D#|-----------------------------------------------------2------------------------|
                                                                              

D#|------------------------------------------------------------------------------|
A#|------------------------------------------------------------------------------|
F#|------------------------------------------------------------------------------|
C#|-2-----------2---------------2--3/5---------------2-3-2-3---------------------|
G#|-0--0-0-0-0--0--0-0-0-0-0-0--0--1/3--0-0-0-0-0-0--0-1-0-1---------------------|
D#|------------------------------------------------------------------------------|
                                                                              

D#|------------------------------------------------------------------------------|
A#|------------------------------------------------------------------------------|
F#|------------------------------------------------------------------------------|
C#|-2-----------2---------------2--3/5---------------3---------------------------|
G#|-0--0-0-0-0--0--0-0-0-0-0-0--0--1/3--0-0-0-0-0-0--1--4------------------------|
D#|-----------------------------------------------------2------------------------|
                                                                              

D#|------------------------------------------------------------------------------|
A#|------------------------------------------------------------------------------|
F#|------------------------------------------------------------------------------|
C#|-2-----------2---------------2--3-5---------------2-3-2-3---------------------|
G#|-0--0-0-0-0--0--0-0-0-0-0-0--0--1/3--0-0-0-0-0-0--0-1-0-1---------------------|
D#|------------------------------------------------------------------------------|
                                                                              

D#|------------------------------------------------------------------------------|
A#|------------------------------------------------------------------------------|
F#|------------------------------------------------------------------------------|
C#|-2-----------2---------------2--3/5-------------------------------------------|
G#|-0--0-0-0-0--0--0-0-0-0-0-0--0--1/3--0-0-0-0-0-0--5-4-------------------------|
D#|------------------------------------------------------------------------------|
                                                                              

D#|------------------------------------------------------------------------------|
A#|------------------------------------------------------------------------------|
F#|------------------------------------------------------------------------------|
C#|-2-----------2---------------2--3/5-------------------------------------------|
G#|-0--0-0-0-0--0--0-0-0-0-0-0--0--1/3--0-0-0-0-0-0------------------------------|
D#|--------------------------------------------------6-5-------------------------|
  2nd guitar                                                                  

D#|------------------------------------------------------------------------------|
A#|------------------------------------------------------------------------------|
F#|------------------------------------------------------------------------------|
C#|-2-----------2---------------2--3/5---------------2-3-2-3---------------------|
G#|-0--0-0-0-0--0--0-0-0-0-0-0--0--1/3--0-0-0-0-0-0--0-1-0-1---------------------|
D#|------------------------------------------------------------------------------|
                                                                              

D#|------------------------------------------------------------------------------|
A#|------------------------------------------------------------------------------|
F#|------------------------------------------------------------------------------|
C#|-2-----------2---------------2--3/5---------------3---------------------------|
G#|-0--0-0-0-0--0--0-0-0-0-0-0--0--1/3--0-0-0-0-0-0--1--4------------------------|
D#|-----------------------------------------------------2------------------------|
                                                                              

D#|------------------------------------------------------------------------------|
A#|------------------------------------------------------------------------------|
F#|------------------------------------------------------------------------------|
C#|-2-----------2---------------2--3/5---------------2-3-2-3---------------------|
G#|-0--0-0-0-0--0--0-0-0-0-0-0--0--1/3--0-0-0-0-0-0--0-1-0-1---------------------|
D#|------------------------------------------------------------------------------|
                                                                              

D#|------------------------------------------------------------------------------|
A#|------------------------------------------------------------------------------|
F#|------------------------------------------------------------------------------|
C#|-2-----------2---------------2--3/5---------------3-----5---------------------|
G#|-0--0-0-0-0--0--0-0-0-0-0-0--0--1/3--0-0-0-0-0-0--1--4--3--6------------------|
D#|-----------------------------------------------------2-----4------------------|
                                                                              

D#|------------------------------------------------------------------------------|
A#|------------------------------------------------------------------------------|
F#|------------------------------------------------------------------------------|
C#|-2---------------2------------------------------------------------------------|
G#|-2---------------2-----------3-8----------------------------------9\8---8\5---|
D#|-0--0-0-0-0-0-0--0--0-0-0-0--1-6--6-6-6-6-6-6-6-6-6-6-6-6-6-6-6---7\6-0-6\3---|
                                                                              

D#|------------------------------------------------------------------------------|
A#|------------------------------------------------------------------------------|
F#|------------------------------------------------------------------------------|
C#|------------------------------------------------------------------------------|
G#|--------------5/8---8\7-------------------------------------------------------|
D#|-3-3-3-3-3-3--3/6-0-6\5--5-5-5-5-5-5------------------------------------------|
                                     repeat above 2 bars 3x                   

D#|------------------------------------------------------------------------------|
A#|------------------------------------------------------------------------------|
F#|------------------------------------------------------------------------------|
C#|-2---------------2------------------------------------------------------------|
G#|-2---------------2-----------3-8---------------------------------9\8---8\5----|
D#|-0--0-0-0-0-0-0--0--0-0-0-0--1-6--6-6-6-6-6-6-6-6-6-6-6-6-6-6-6--7\6-0-6\3----|
                                                                              

D#|------------------------------------------------------------------------------|
A#|------------------------------------------------------------------------------|
F#|------------------------------------------------------------------------------|
C#|------------------------------------------------------------------------------|
G#|-5/8---8\7--------------------------------------------------------------------|
D#|-3/6-0-6\5--------------------------------------------------------------------|
                                                                              

D#|------------------------------------------------------------------------------|
A#|------------------------------------------------------------------------------|
F#|------------------------------------------------------------------------------|
C#|-4-----------4-------------------4---------------5--4-------------------------|
G#|-2--2-2-2-2--2--2-2-2-2-2-2-2-2--2--2-2-2-2-2-2--2--2--3-----------3----------|
D#|-------------------------------------------------------1--1-1-1-1--1----------|
     solo rhythm                                                              

D#|------------------------------------------------------------------------------|
A#|------------------------------------------------------------------------------|
F#|------------------------------------------------------------------------------|
C#|----------------------------0-2-3---------------------------------------------|
G#|----------------------0-2-3---------------------------------------------------|
D#|-1-1-1-1-1-1-1-1--1-3---------------------------------------------------------|
                             repeat above 2 bars 4x                           

D#|------------------------------------------------------------------------------|
A#|------------------------------------------------------------------------------|
F#|-----------------------------------------------9/10--9/10---------------------|
C#|-2-----------2---------------2--3/5------------7/-8--7/-8---------------------|
G#|-0--0-0-0-0--0--0-0-0-0-0-0--0--1/3--0-0-0-0-0--------------------------------|
D#|------------------------------------------------------------------------------|
                                                                              

D#|------------------------------------------------------------------------------|
A#|------------------------------------------------------------------------------|
F#|-----------------------------------------------8/9--8/9-----------------------|
C#|-9-----------9---------------------------------6/7--6/7-----------------------|
G#|-7--7-7-7-7--7--7-7-7-7-7-7-7-7-7-7-7-7-7-7-7---------------------------------|
D#|------------------------------------------------------------------------------|
                                                                              

D#|------------------------------------------------------------------------------|
A#|------------------------------------------------------------------------------|
F#|-----------------------------------------------7/8--7/8-----------------------|
C#|-8-----------8---------------------------------5/6--5/6-----------------------|
G#|-6--6-6-6-6--6--6-6-6-6-6-6-6-6-6-6-6-6-6-6-6---------------------------------|
D#|------------------------------------------------------------------------------|
                                                                              

D#|------------------------------------------------------------------------------|
A#|------------------------------------------------------------------------------|
F#|------------------------------------------------------------------------------|
C#|-7-----------7-------------------6---------------3----------------------------|
G#|-5--5-5-5-5--5--5-5-5-5-5-5-5-5--4--4-4-4-4-4-4--1--1-1-1-1-1-1---------------|
D#|------------------------------------------------------------------------------|
                              repeat above 4 bars 2x                          

D#|------------------------------------------------------------------------------|
A#|------------------------------------------------------------------------------|
F#|------------------------------------------------------------------------------|
C#|-2---------------2------------------------------------------------------------|
G#|-2---------------2-----------3/8----------------------------------------------|
D#|-0--0-0-0-0-0-0--0--0-0-0-0--1/6--6-6-6-6-6-6-6-6-6-6-6-6-6-6-6---------------|
                                                                              

D#|------------------------------------------------------------------------------|
A#|------------------------------------------------------------------------------|
F#|------------------------------------------------------------------------------|
C#|---------------------------------2--------------------------------------------|
G#|-7p5---6p4---3h5---2h4-----------2--------------------------------------------|
D#|-----6-----5-----4-----3--4-3-1--0--------------------------------------------|
                                                                              

Tap to rate this tab
# A B C D E F G H I J K L M N O P Q R S T U V W X Y Z