Song name
# A B C D E F G H I J K L M N O P Q R S T U V W X Y Z

Young The Giant - Cough Syrup tab

Artist: Young The Giant
Song: Cough Syrup
Tabbed by: Ricardo Ruiz
Email: Runningbass77@yahoo.com


I really enjoy playing this song. I watch a few videos and it seems to be right. 
Feel free to comment on any small mistakes. Thanks!!!!! Smell you Later=D  


E|------------------------------------------|
B|------------------------------------------|
G|---------7---6---6---4---4---------4h6----|
D|-------4--------------------7-------------|
A|-----5-----5---5---5---5---------5--------|
E|------------------------------------------|


E|------------------------------------------|
B|------------------------------------------|
G|---------6----4---4-----------------------|
D|----------------------7---7--5---4--5-----|
A|-------4----------------------------------|
E|-----5------5---5---5---5------5---5------|


E|------------------------------------------|
B|-----------------------------5---5--------|
G|---------4---6---6---7---7----------------|
D|-------5----------------------------------|
A|------------------------------------------|
E|-----3-----3---3---3---3---3---3----------|


E|------------------------------------------|
B|---------------------5--------------------|
G|---------6---7---7------------------------|
D|------------------------------------------|
A|-------4----------------------------------|
E|-----5-----5---5---5----------------------|

Tap to rate this tab
 
# A B C D E F G H I J K L M N O P Q R S T U V W X Y Z