Guitaretab - guitar tabs
Song name
# A B C D E F G H I J K L M N O P Q R S T U V W X Y Z

Your Demise - Burnt Tongues tab

Track 1
              PM PM                                                           
                    |--3--|    |--3--|        3  3    |--3--|  3  3    3  3   
       E.   T E  E  E  E  E  T E  E  E     E  E  E  S E  E  E  E  E  S E  E   
D#||------------------------------------|-----------------------------------|
A#||------------------------------------|-----------------------------------|
F#||*-----------------------------------|-----------------------------------|
C#||*-----------------------------------|-----------------------------------|
G#||----------0--0--0--0--0----0--0--0--|-----0--0----0--0-----0--0----0--0-|
C#||---1b-----0--0--0--0--0----0--0--0--|-----0--0----0--0-----0--0----0--0-|


         PM PM                                                       
               |--3--|    |--3--|     |----3----|    |----3----|     
  E.   T E  E  E  E  E  T E  E  E     Q    Q    Q    Q    Q    Q     
-----------------------------------|--------------------------------|
-----------------------------------|--------------------------------|
-----------------------------------|--------------------------------|
-----------------------------------|--6----6----6----6----6----6----|
---------0--0--0--0--0----0--0--0--|--4----4----4----4----4----4----|
--1b-----0--0--0--0--0----0--0--0--|--4----4----4----4----4----4----|


         PM PM                                                           
               |--3--|    |--3--|        3  3    |--3--|  3  3    3  3   
  E.   T E  E  E  E  E  T E  E  E     E  E  E  S E  E  E  E  E  S E  E   
-----------------------------------|------------------------------------|
-----------------------------------|------------------------------------|
-----------------------------------|------------------------------------|
-----------------------------------|------------------------------------|
---------0--0--0--0--0----0--0--0--|-----0--0----0--0-----0--0----0--0--|
--1b-----0--0--0--0--0----0--0--0--|-----0--0----0--0-----0--0----0--0--|


         PM PM                                                               
               |--3--|    |--3--|      |-----3-----|     |-----3-----|       
  E.   T E  E  E  E  E  T E  E  E      Q     Q     Q     Q     Q     Q       
-----------------------------------|---------------------------------------||
-----------------------------------|---------------------------------------||
-----------------------------------|--------------------------------------*||
-----------------------------------|--10----10----10----10----10----10----*||
---------0--0--0--0--0----0--0--0--|---8-----8-----8-----8-----8-----8-----||
--1b-----0--0--0--0--0----0--0--0--|---8-----8-----8-----8-----8-----8-----||


          PM PM                                PM PM               
                |--3--|    |--3--|                                 
   E.   T E  E  E  E  E  T E  E  E      E.   T E  E  E.  E.  E  T  
------------------------------------|-----------------------------|
------------------------------------|-----------------------------|
------------------------------------|-----------------------------|
--10\-------------------------------|--10\-----------7---7---7--L-|
---8\-----0--0--0--0--0----0--0--0--|---8\-----0--0--5---5---5--L-|
---8\-----0--0--0--0--0----0--0--0--|---8\-----0--0--5---5---5--L-|


          PM PM                                PM PM               
                |--3--|    |--3--|                                 
   E.   T E  E  E  E  E  T E  E  E      E.   T E  E  E.  E.  E  T  
------------------------------------|-----------------------------|
------------------------------------|-----------------------------|
------------------------------------|-----------------------------|
--10\-------------------------------|--10\-----------7---7---7--L-|
---8\-----0--0--0--0--0----0--0--0--|---8\-----0--0--5---5---5--L-|
---8\-----0--0--0--0--0----0--0--0--|---8\-----0--0--5---5---5--L-|


          PM PM                                PM PM               
                |--3--|    |--3--|                                 
   E.   T E  E  E  E  E  T E  E  E      E.   T E  E  E.  E.  E  T  
------------------------------------|-----------------------------|
------------------------------------|-----------------------------|
------------------------------------|-----------------------------|
--10\-------------------------------|--10\-----------7---7---7--L-|
---8\-----0--0--0--0--0----0--0--0--|---8\-----0--0--5---5---5--L-|
---8\-----0--0--0--0--0----0--0--0--|---8\-----0--0--5---5---5--L-|


          PM PM                                PM PM               
                |--3--|    |--3--|                                 
   E.   T E  E  E  E  E  T E  E  E      E.   T E  E  E.  E.  E  T  
------------------------------------|-----------------------------|
------------------------------------|-----------------------------|
------------------------------------|-----------------------------|
--10\-------------------------------|--10\-----------7---7---7--L-|
---8\-----0--0--0--0--0----0--0--0--|---8\-----0--0--5---5---5--L-|
---8\-----0--0--0--0--0----0--0--0--|---8\-----0--0--5---5---5--L-|


          PM PM                                PM PM               
                |--3--|    |--3--|                                 
   E.   T E  E  E  E  E  T E  E  E      E.   T E  E  E.  E.  E  T  
------------------------------------|-----------------------------|
------------------------------------|-----------------------------|
------------------------------------|-----------------------------|
--10\-------------------------------|--10\-----------7---7---7--L-|
---8\-----0--0--0--0--0----0--0--0--|---8\-----0--0--5---5---5--L-|
---8\-----0--0--0--0--0----0--0--0--|---8\-----0--0--5---5---5--L-|


          PM PM                                PM PM               
                |--3--|    |--3--|                                 
   E.   T E  E  E  E  E  T E  E  E      E.   T E  E  E.  E.  E  T  
------------------------------------|-----------------------------|
------------------------------------|-----------------------------|
------------------------------------|-----------------------------|
--10\-------------------------------|--10\-----------7---7---7--L-|
---8\-----0--0--0--0--0----0--0--0--|---8\-----0--0--5---5---5--L-|
---8\-----0--0--0--0--0----0--0--0--|---8\-----0--0--5---5---5--L-|


  W                   W                   W                 
-------------------|-------------------|-------------------|
-------------------|-------------------|-------------------|
-------------------|-------------------|-------------------|
--0----------------|--L----------------|--L----------------|
--0----------------|--L----------------|--L----------------|
--0----------------|--L----------------|--L----------------|


  strum these chords to the rhythm                                          
  W                                   W                   W                 
-----------------------------------|-------------------|-------------------|
-----------------------------------|-------------------|-------------------|
-----------------------------------|--7----------------|-------------------|
--8--------------------------------|--7----------------|--8----------------|
--8--------------------------------|--5----------------|--8----------------|
--8--------------------------------|-------------------|--8----------------|


  play these once, but hold the open notes.          
  H                                   H         
-----------------------------------------------|
-----------------------------------------------|
-----------------------------------------------|
--8-----------------------------------0--------|
--6-----------------------------------0--------|
--6-----------------------------------0--------|


   then repeat this again, minus the open notes  
  W                                              
------------------------------------------------|
------------------------------------------------|
------------------------------------------------|
--0---------------------------------------------|
--0---------------------------------------------|
--0---------------------------------------------|


  back to the start riff...                              
                              PM PM                      
                                    |--3--|    |--3--|   
  E.                        T E  E  E  E  E  T E  E  E   
--------------------------------------------------------|
--------------------------------------------------------|
--------------------------------------------------------|
--------------------------------------------------------|
------------------------------0--0--0--0--0----0--0--0--|
--1b--------------------------0--0--0--0--0----0--0--0--|


                                              PM PM                      
     3  3    |--3--|  3  3    3  3                  |--3--|    |--3--|   
  E  E  E  S E  E  E  E  E  S E  E     E.   T E  E  E  E  E  T E  E  E   
------------------------------------|-----------------------------------|
------------------------------------|-----------------------------------|
------------------------------------|-----------------------------------|
------------------------------------|-----------------------------------|
-----0--0----0--0-----0--0----0--0--|---------0--0--0--0--0----0--0--0--|
-----0--0----0--0-----0--0----0--0--|--1b-----0--0--0--0--0----0--0--0--|

[ Tab from: http://www.guitaretab.com/y/your-demise/186436.html ]
                                          PM PM                      
  |----3----|    |----3----|                    |--3--|    |--3--|   
  Q    Q    Q    Q    Q    Q       E.   T E  E  E  E  E  T E  E  E   
--------------------------------|-----------------------------------|
--------------------------------|-----------------------------------|
--------------------------------|-----------------------------------|
--6----6----6----6----6----6----|-----------------------------------|
--4----4----4----4----4----4----|---------0--0--0--0--0----0--0--0--|
--4----4----4----4----4----4----|--1b-----0--0--0--0--0----0--0--0--|


                                              PM PM                      
     3  3    |--3--|  3  3    3  3                  |--3--|    |--3--|   
  E  E  E  S E  E  E  E  E  S E  E     E.   T E  E  E  E  E  T E  E  E   
------------------------------------|-----------------------------------|
------------------------------------|-----------------------------------|
------------------------------------|-----------------------------------|
------------------------------------|-----------------------------------|
-----0--0----0--0-----0--0----0--0--|---------0--0--0--0--0----0--0--0--|
-----0--0----0--0-----0--0----0--0--|--1b-----0--0--0--0--0----0--0--0--|


   slightly different this time...                       
   |------------------3------------------|               
   Q                               Q     Q    E  Q.      
--------------------------------------------------------|
--------------------------------------------------------|
--------------------------------------------------------|
--10------------------------------10----10----0--1------|
---8-------------------------------8-----8----0--1------|
---8-------------------------------8-----8----0--1------|


        PM PM                                                           
              |--3--|    |--3--|        3  3    |--3--|  3  3    3  3   
  E.  T E  E  E  E  E  T E  E  E     E  E  E  S E  E  E  E  E  S E  E   
----------------------------------|------------------------------------|
----------------------------------|------------------------------------|
----------------------------------|------------------------------------|
----------------------------------|------------------------------------|
--1-----0--0--0--0--0----0--0--0--|-----0--0----0--0-----0--0----0--0--|
--1-----0--0--0--0--0----0--0--0--|-----0--0----0--0-----0--0----0--0--|


        PM PM                                                       
              |--3--|    |--3--|     |----3----|    |----3----|     
  E.  T E  E  E  E  E  T E  E  E     Q    Q    Q    Q    Q    Q     
----------------------------------|--------------------------------|
----------------------------------|--------------------------------|
----------------------------------|--------------------------------|
----------------------------------|--7----7----7----7----7---------|
--1-----0--0--0--0--0----0--0--0--|--5----5----5----5----5---------|
--1-----0--0--0--0--0----0--0--0--|--5----5----5----5----5---------|


        PM PM                                                           
              |--3--|    |--3--|        3  3    |--3--|  3  3    3  3   
  E.  T E  E  E  E  E  T E  E  E     E  E  E  S E  E  E  E  E  S E  E   
----------------------------------|------------------------------------|
----------------------------------|------------------------------------|
----------------------------------|------------------------------------|
----------------------------------|------------------------------------|
--1-----0--0--0--0--0----0--0--0--|-----0--0----0--0-----0--0----0--0--|
--1-----0--0--0--0--0----0--0--0--|-----0--0----0--0-----0--0----0--0--|


        PM PM                                                     
              |--3--|    |--3--|      |-----3-----|               
  E.  T E  E  E  E  E  T E  E  E      Q     Q     Q    E  Q.      
----------------------------------|------------------------------|
----------------------------------|------------------------------|
----------------------------------|------------------------------|
----------------------------------|--10----10----10----0--1------|
--1-----0--0--0--0--0----0--0--0--|---8-----8-----8----0--1------|
--1-----0--0--0--0--0----0--0--0--|---8-----8-----8----0--1------|


         PM PM                                          
               |--3--|    |--3--|                       
  E.   T E  E  E  E  E  T E  E  E     W                 
-----------------------------------|-------------------|
-----------------------------------|-------------------|
-----------------------------------|-------------------|
-----------------------------------|-------------------|
---------0--0--0--0--0----0--0--0--|-------------------|
--1b-----0--0--0--0--0----0--0--0--|-------------------|


         PM PM                                                       
               |--3--|    |--3--|     |----3----|    |----3----|     
  E.   T E  E  E  E  E  T E  E  E     Q    Q    Q    Q    Q    Q     
-----------------------------------|--------------------------------|
-----------------------------------|--------------------------------|
-----------------------------------|--------------------------------|
-----------------------------------|--6----6----6----6----6----6----|
---------0--0--0--0--0----0--0--0--|--4----4----4----4----4----4----|
--1b-----0--0--0--0--0----0--0--0--|--4----4----4----4----4----4----|


         PM PM                                          
               |--3--|    |--3--|                       
  E.   T E  E  E  E  E  T E  E  E     W                 
-----------------------------------|-------------------|
-----------------------------------|-------------------|
-----------------------------------|-------------------|
-----------------------------------|-------------------|
---------0--0--0--0--0----0--0--0--|-------------------|
--1b-----0--0--0--0--0----0--0--0--|-------------------|


         PM PM                                                  
               |--3--|    |--3--|     |----3----|               
  E.   T E  E  E  E  E  T E  E  E     Q    Q    Q    E  Q.      
-----------------------------------|---------------------------|
-----------------------------------|---------------------------|
-----------------------------------|---------------------------|
-----------------------------------|--6----6----6----0--1------|
---------0--0--0--0--0----0--0--0--|--4----4----4----0--1------|
--1b-----0--0--0--0--0----0--0--0--|--4----4----4----0--1------|


  outro                                                         
          PM PM                        PM PM PM PM PM PM PM PM  
                |--3--|    |--3--|                              
  E.    T E  E  E  E  E  T E  E  E     E  E  E  E  E  E  E  E   
------------------------------------|--------------------------|
------------------------------------|--------------------------|
------------------------------------|--------------------------|
------------------------------------|--------------------------|
----------0--0--0--0--0----0--0--0--|--0--0--0--0--0--0--0--0--|
--1b------0--0--0--0--0----0--0--0--|--0--0--0--0--0--0--0--0--|


         PM PM                                                       
               |--3--|    |--3--|     |----3----|    |----3----|     
  E.   T E  E  E  E  E  T E  E  E     Q    Q    Q    Q    Q    Q     
-----------------------------------|--------------------------------|
-----------------------------------|--------------------------------|
-----------------------------------|--------------------------------|
-----------------------------------|--6----6----6----6----6----6----|
---------0--0--0--0--0----0--0--0--|--4----4----4----4----4----4----|
--1b-----0--0--0--0--0----0--0--0--|--4----4----4----4----4----4----|


  outro                                                         
          PM PM                        PM PM PM PM PM PM PM PM  
                |--3--|    |--3--|                              
  E.    T E  E  E  E  E  T E  E  E     E  E  E  E  E  E  E  E   
------------------------------------|--------------------------|
------------------------------------|--------------------------|
------------------------------------|--------------------------|
------------------------------------|--------------------------|
----------0--0--0--0--0----0--0--0--|--0--0--0--0--0--0--0--0--|
--1b------0--0--0--0--0----0--0--0--|--0--0--0--0--0--0--0--0--|


         PM PM                                                       
               |--3--|    |--3--|     |----3----|    |----3----|     
  E.   T E  E  E  E  E  T E  E  E     Q    Q    Q    Q    Q    Q     
-----------------------------------|--------------------------------|
-----------------------------------|--------------------------------|
-----------------------------------|--------------------------------|
-----------------------------------|--6----6----6----6----6----6----|
---------0--0--0--0--0----0--0--0--|--4----4----4----4----4----4----|
--1b-----0--0--0--0--0----0--0--0--|--4----4----4----4----4----4----|


  W                                      
-------------------|-------------------||
-------------------|-------------------||
-------------------|-------------------||
--1----------------|-------------------||
--1----------------|-------------------||
--1----------------|-------------------||




Duration Legend
---------------
W - whole
H - half
Q - quarter
E - 8th
S - 16th
T - 32nd
X - 64th
. - note dotted
|-n-|  - n-tuplets


Tablature Legend
----------------
L - tied note
x - dead note
g - grace note
(n) - ghost note
> - accentuded note
NH - natural harmonic
AH - artificial harmonic
TH - tapped harmonic
SH - semi harmonic
PH - pitch harmonic
h - hammer on
p - pull off
b - bend
br - bendRelease
pb - preBend
pbr - preBendRelease
brb - bendReleaseBend
\n/ - tremolo bar dip
\n - tremolo bar dive
-/n - tremolo bar Release up
/n\ - tremolo bar inverted dip
/n - tremolo bar return
-\n - tremolo bar Release down
S - shift slide
s - legato slide
/ -  slide into from below or out of upwards
\ -  slide into from above or out of downwards
~ - vibrato
W - wide vibrato
tr - trill
TP - tremolo picking
T - tapping
S - slap
P - pop
< - fade in
^ - brush up
v - brush down
Related for Burnt Tongues tab
Burnt Tongues chords by Your Demise