Song name
# A B C D E F G H I J K L M N O P Q R S T U V W X Y Z

Your Demise - Paper Trails tab

Song: Paper Trails
Band: Your Demise

Tuning:Drop C#

Intro

Rhythm:                                                                    x5
D#|-------------------------------------------------------------------------|
A#|-------------------------------------------------------------------------|
F#|-------------------------------------------------------------------------|
C#|-3333333333333-555-0000000000000000--------------------------------------|
G#|-3333333333333-555-0000000000000000--------------------------------------|
C#|-3333333333333-555-0000000000000000--------------------------------------|

Lead (On third time):
D#|-------------------------------------------------------------------------|
A#|-------------------------------------------------------------------------|
F#|-------------------------------------------------------------------------|
C#|-7777444473~~-7777444473~~--7777444473~~--7777444473~~~~~----------------|
G#|-------------------------------------------------------------------------|
C#|-------------------------------------------------------------------------|


Verse

Rhythm:
 Pm*********************************|                                      x5
D#|-------------------------------------------------------------------------|
A#|-------------------------------------------------------------------------|
F#|-------------------------------------------------------------------------|
C#|-33-333-333-333-55-00-000-000-000----------------------------------------|
G#|-33-333-333-333-55-00-000-000-000----------------------------------------|
C#|-33-333-333-333-55-00-000-000-000----------------------------------------|


Lead
D#|-------------------------------------------------------------------------|
A#|-------------------------------------------------------------------------|
F#|-------------------------------------------------------------------------|
C#|-7777444473~~-7777444473~~--7777444473~~--7777444473~~~~-----------------|
G#|-------------------------------------------------------------------------|
C#|-------------------------------------------------------------------------|


Chorus

Both:                                                                      x5
D#|-------------------------------------------------------------------------|
A#|-------------------------------------------------------------------------|
F#|-------------------------------------------------------------------------|
C#|-3333333333333-555-0000000000000000--------------------------------------|
G#|-3333333333333-555-0000000000000000--------------------------------------|
C#|-3333333333333-555-0000000000000000--------------------------------------|


Lead (on third time): 
D#|-------------------------------------------------------------------------|
A#|-------------------------------------------------------------------------|
F#|-------------------------------------------------------------------------|
C#|-7777444473~~-7777444473~~--7777444473~~--7777444473~~~~-----------------|
G#|-------------------------------------------------------------------------|
C#|-------------------------------------------------------------------------|


Verse

Rhythm:
 Pm*********************************|                                     x5
D#|-------------------------------------------------------------------------|
A#|-------------------------------------------------------------------------|
F#|-------------------------------------------------------------------------|
C#|-33-333-333-333-55-00-000-000-000----------------------------------------|
G#|-33-333-333-333-55-00-000-000-000----------------------------------------|
C#|-33-333-333-333-55-00-000-000-000----------------------------------------|

Lead
D#|-------------------------------------------------------------------------|
A#|-------------------------------------------------------------------------|
F#|-------------------------------------------------------------------------|
C#|-7777444473~~-7777444473~~--7777444473~~--7777444473~~~~-----------------|
G#|-------------------------------------------------------------------------|
C#|-------------------------------------------------------------------------|


Bridge

Both:
D#|-------------------------------------------------------------------------|
A#|-------------------------------------------------------------------------|
F#|-------------------------------------------------------------------------|
C#|-7777444473333-----------------------------------------------------------|
G#|-------------------------------------------------------------------------|
C#|-------------------------------------------------------------------------|

Both:                                                                     x6
D#|-------------------------------------------------------------------------|
A#|-------------------------------------------------------------------------|
F#|-------------------------------------------------------------------------|
C#|-3~~~~~~~~~~5~0~~~~~~~~~~~-----------------------------------------------|
G#|-3~~~~~~~~~~5~0~~~~~~~~~~~-----------------------------------------------|
C#|-3~~~~~~~~~~5~0~~~~~~~~~~~-----------------------------------------------|


Rhythm:                                                                    x2
D#|-------------------------------------------------------------------------|
A#|-------------------------------------------------------------------------|
F#|-------------------------------------------------------------------------|
C#|-3333333333333-555-0000000000000000--------------------------------------|
G#|-3333333333333-555-0000000000000000--------------------------------------|
C#|-3333333333333-555-0000000000000000--------------------------------------|


Lead: 
D#|-------------------------------------------------------------------------|
A#|-------------------------------------------------------------------------|
F#|-------------------------------------------------------------------------|
C#|-7777444473~~-7777444473~~--7777444473~~--7777444473~~~~-----------------|
G#|-------------------------------------------------------------------------|
C#|-------------------------------------------------------------------------|

Both end on:
D#|-------------------------------------------------------------------------|
A#|-------------------------------------------------------------------------|
F#|-------------------------------------------------------------------------|
C#|-3~~~~~~~~~~~~~~~--------------------------------------------------------|
G#|-3~~~~~~~~~~~~~~~--------------------------------------------------------|
C#|-3~~~~~~~~~~~~~~~--------------------------------------------------------|


************************************

| /   slide up
| \   slide down
| h   hammer-on
| p   pull-off
| ~   vibrato
| +   harmonic
| x   Mute note
| b   Bend
| pb  Pre-bend
| br  Bend release
| pbr Pre-bend release
| brb Bend release bend

************************************
Tap to rate this tab
 
# A B C D E F G H I J K L M N O P Q R S T U V W X Y Z