Youth Alive Wa - Take Over tab

-------------------------------------------------------------------------------
			     TAKE OVER - Youth Alive
-------------------------------------------------------------------------------
Tabbed by: makutoid
Email: makutoid_@hotmail.com

Tuning: Drop D

For fuller sounding power chords in the chorus:
   Bb  C   G
e|----|----|---|
B|-11-|-13-|-8-|
G|-10-|-12-|-7-|
D|-8--|-10-|-5-|
A|-8--|-10-|-5-|
D|-8--|-10-|-5-|

Intro
  Bb             F              D              Eb
e|-----------------------------|-----------------------------|
B|-----------------------------|-----------------------------|
G|-----------------------------|-----------------------------|
D|-----------------------------|-----------------------------|
A|-----------------------------|-----------------------------|
D|-8-7-0-5-7-5-0-3-3-3-6-5-3-0-|-8-7-0-5-7-5-0-1-1-1-8-8-8-8-|


Verse
   Bb            C                   D
e|---------------------------------|--------------------------------------|
B|---------------------------------|--------------------------------------|
G|---------------------------------|--------------------------------------|
D|-------10---10----------12----12-|----------14-----14----------14----14-|
A|-------8----8-----------10----10-|----------12-----12----------12----12-|
D|-8-8-8----8----10-10-10----10----|-12-12-12-----12----12-12-12----12----|


PreChorus                                                               G  A
e|-13-12-10--10h12--10-8-|------9---9------9---|-13-12-10--10-12--10-8-|----|
B|-----------------------|----9---9------9---9-|-----------------------|----|
G|-----------------------|-11---------11-------|-----------------------|----|
D|-----------------------|---------------------|-----------------------|----|
A|-----------------------|---------------------|-----------------------|----|
D|-----------------------|---------------------|-----------------------|----|

   Bb              C                     G               A
e|---------------|---------------------|---------------|---------------|
B|---------------|---------------------|---------------|---------------|
G|---------------|---------------------|---------------|---------------|
D|-8--8-8--8-8-8-|-10--10-10--10-10-10-|-5--5-5--5-5-5-|-7--7-7--7-7-7-|
A|-8--8-8--8-8-8-|-10--10-10--10-10-10-|-5--5-5--5-5-5-|-7--7-7--7-7-7-|
D|-8--8-8--8-8-8-|-10--10-10--10-10-10-|-5--5-5--5-5-5-|-7--7-7--7-7-7-|
   Bb              C                     G               A
e|---------------|---------------------|---------------|---------------|
B|---------------|---------------------|---------------|---------------|
G|---------------|---------------------|---------------|---------------|
D|-8--8-8--8-8-8-|-10--10-10--10-10-10-|-5--5-5--5-5-5-|-7--7-7--7-7-7-|
A|-8--8-8--8-8-8-|-10--10-10--10-10-10-|-5--5-5--5-5-5-|-7--7-7--7-7-7-|
D|-8--8-8--8-8-8-|-10--10-10--10-10-10-|-5--5-5--5-5-5-|-7--7-7--7-7-7-|


Chorus
   Bb                C                  G
e|-----------------|------------------|-----------------|------------------|
B|-----------------|------------------|-----------------|------------------|
G|-----------------|------------------|-----------------|------------------|
D|-8-8-8-8-8-8-8-8-|-1010101010101010-|-5-5-5-5-5-5-5-5-|-5-5-5-5-5-5-5-5--|
A|-8-8-8-8-8-8-8-8-|-1010101010101010-|-5-5-5-5-5-5-5-5-|-5-5-5-5-5-5-5-5--|
D|-8-8-8-8-8-8-8-8-|-1010101010101010-|-5-5-5-5-5-5-5-5-|-5-5-5-5-5-5-5-5--|


Makes a change from the usual Planetshakers and Hillsong that seems to dominate the 
Christian music scene... Youth Alive really did a good one here!
Slightly more complicated than most as the riff if quite a bit faster, but far from 
difficult to master.

There is a lead part in the pre-chorus which is a bit weird, difficult to get the rhythm 
to it. Search youtube for the song and there's a dude who plays it if you get stuck :)

************************************

| /   slide up
| \   slide down
| h   hammer-on
| p   pull-off
| ~   vibrato
| +   harmonic
| x   Mute note
| b   Bend
| pb  Pre-bend
| br  Bend release
| pbr Pre-bend release
| brb Bend release bend

************************************
Tap to rate this tab
 
# A B C D E F G H I J K L M N O P Q R S T U V W X Y Z