Song name
# A B C D E F G H I J K L M N O P Q R S T U V W X Y Z

Youth Lagoon - Montana tab

-----------------------------------------------------------
                 Youth Lagoon - Montana
-----------------------------------------------------------

Tabbed by: Hunter Harpole
Email Address: Guitartabman@gmail.com

Obviously this song is all done with a piano and a couple synths for most of the song 
and the only guitar is in the full on jam at the end, strumming out the chords.  Here I 
have taken the piano and synth parts and converted them to guitar instead.

Tuning: Standard

Until verse 2, you will just pluck the strings with your fingers.

Also guitar-2 will be the whistle-sounding synth.

Intro:

e-|---------------|
B-|---------------|
G-|-6--------6--6-|  X2
D-|----------7----|
A-|-7--4--7--5--7-|
E-|-5-----------5-|

Verse 1:

e-|--------------------------------------------|
B-|--------------------------------------------|
G-|-6--------6--6--------6--6--------6--4--(6)-|  X2
D-|----------7-----------7-----------7--6--(7)-|
A-|-7--4--7--5--7--4--7--5--7--4--7--5--7--(5)-|
E-|-5-----------5-----------5------------------|

*Parentheses mean second time only

Break between verses:

e-|------------------------------------------------|
B-|------------------------------------------------|
G-|-------6-----------6-----------6-----------6----|
D-|----7-----7-----7-----7-----7-----7-----7-----7-|  X2
A-|-7-----------7-----------9-----------9----------|
E-|------------------------------------------------|

Break continued:

e-|---------------------------------------|
B-|---------------------------------------|
G-|-------6-----------6-----------6-------|
D-|----7-----7-----7-----7-----7-----7----|
A-|-5-----------5-----------5-----------5-|
E-|---------------------------------------|

Break guitar-2:

e-|-----------------------------16--14------14--16-----|
B-|-----14--15----------14--15----------15----------15-|
G-|-14--------------14---------------------------------|
D-|-------------16-------------------------------------|
A-|----------------------------------------------------|
E-|----------------------------------------------------|

Verse 2:

e-|------------------------------------------------|
B-|------------------------------------------------|
G-|-6--6--6--6--6--6--6--6--------------6--6--6--6-|
D-|-7--7--7--7--7--7--7--7--2--2--2--2--7--7--7--7-|
A-|-7--7--7--7--5--5--5--5--4--4--4--4--5--5--5--5-|
E-|-5--5--5--5--------------2--2--2--2-------------|

Full on jam at the end:

e-|-5----5----2----0-|
B-|-5----7----2----0-|
G-|-6----7----2----1-|
D-|-7----7----4----2-|
A-|-7----5----4----2-|
E-|-5---------2----0-|

*Start with one strum for every 4 beats(1 measure), and work up to 8 strums for every 4 
beats(1 measure)

Full on jam at the end, guitar-2:

e-|---------------------12----------------------12-|
B-|-14--12------------------14--12--12--12---------|
G-|---------14--14--11----------------------14-----|
D-|------------------------------------------------|
A-|------------------------------------------------|
E-|------------------------------------------------|

And thatís all folks!  I hope you had an easy time understanding this tab and enjoy 
playing this song in the future!  Thanks and if you have any suggestions, just comment or 
email me.  Also donít forget to rate 5 stars!
Tap to rate this tab
# A B C D E F G H I J K L M N O P Q R S T U V W X Y Z