Song name
# A B C D E F G H I J K L M N O P Q R S T U V W X Y Z

Zebrahead - Sirens tab

NO SOLO
INTRO ONLY HALF DONE
NOT 100% correct
!!!HALF STEP DOWN TUNING!!!

Intro (use whammy pedal 1 octave up)
eb)-777777777777777-7/22(slide down while tremolo picking)--|
bb)---------------------------------------------------------|
gb)---------------------------------------------------------|
db)---------------------------------------------------------|
ab)---------------------------------------------------------|
eb)---------------------------------------------------------|

Main riff git1                            var1
eb)-----1717----15(15)----1414----------  eb)----------14-15-14-------|
bb)-1212----1212------1212----121217(17)  bb)-12-15-17----------17-15-|
gb)-------------------------------------  gb)-------------------------|
db)-------------------------------------  db)-------------------------|
ab)-------------------------------------  ab)-------------------------|
eb)-------------------------------------  eb)-------------------------|

main riff git2
eb)---------------------------|
bb)---------------------------|
gb)---------------------------|
db)---------------------------|
ab)----767----767----767-9767-|
eb)-00-----00-----00----------|
    p.m    p.m.   p.m.

verse (not exact amount listen to the rhythm)
eb)----------------------------------------------------|
bb)----------------------------------------------------|
gb)------------2-4--------4-6-7--------7-9-------------|
db)-2--------2-2-4-444444-4-6-7-777777-7-9-77777777777-|
ab)-2-222222-2-0-2-222222-2-4-5-555555-5-9-77777777777-|
eb)-0-000000-0-----------------------------55555555555-|
      p.m...       p.m...       p.m...     up/down

verse 2 (u=up d=down)
eb)-----------------------------------|------------------------------------|
bb)-----------------------------------|------------------------------------|
gb)-9--99--99-131113--8--88-88-131113-|-1414-13-11-9-1414-13-11-9-66666666-|
db)-----------------------------------|------------------------------------|
ab)-7--77--77-119-11--6--66-66-119-11-|-1212-11-9--7-1212-11-9--7-44444444-|
eb)-----------------------------------|------------------------------------|
    d  du  du d u d   d  du du d u d    d u  d  u  d d u  d  u  d dudududu

pre-chorus
eb)---------------|   eb)---------------------|
bb)---------------|   bb)---------------------|
gb)---------------|x3 gb)---------------------|
db)-9xx9xx99-12-7-|   db)-999999-121212121212-|
ab)-9xx9xx99-12-7-|   ab)-999999-121212121212-|
eb)-7xx7xx77-10-5-|   eb)-777777-101010101010-|
    dduddudd u  d         dududu d u d u d u
chorus
eb)----------------------|------------------|
bb)----------------------|------------------|
gb)-9---------6----------|-9----------------|
db)-9(x8)9----6(x8)7-----|-9----9----7------|
ab)-7----9(x8)4----7(x8)-|-7----9(x8)7(x16)-|
eb)------7---------5-----|------7----5------|

pre-solo
eb)---------------------------|
bb)---------------------------|
gb)---------------------------|
db)---------------------------|
ab)----767----767----767-9767-|
eb)-00-----00-----00----------|
    p.m    p.m    p.m

solo rhythm guitar
eb)---------------------------------|
bb)---------------------------------|
gb)-99999999-77777777---------------|
db)-99999999-77777777-9xx9xx99-12-7-|
ab)-77777777-55555555-9xx9xx99-12-7-|
eb)-------------------7xx7xx77-10-5-|

after solo (it's actually chorus but palm muted)
eb)----------------------------------------------------------|
bb)----------------------------------------------------------|
gb)-------------------------------------------------------2~-|
db)----------44444444-66666666-------------------44444444-2~-|
ab)-22222222-22222222-44444444-77777777-22222222-22222222-0~-|
eb)-00000000-------------------55555555-00000000-------------|
    p.m.
that's about it.
should be mostly correct
solo i can't figure it out, i've got some notes right but that's about it.
any correction please feel free to leave them.
Tap to rate this tab
 
# A B C D E F G H I J K L M N O P Q R S T U V W X Y Z