Song name
# A B C D E F G H I J K L M N O P Q R S T U V W X Y Z

Zebrahead - Automatic tab

half step down tuning, can be played standard just move the 1 fret lower

intro, pre-chorus
eb)--------------|
bb)--------------|
gb)----7-----5-4-|
db)-5--7--7--5-4-|
ab)-5--5--7--3-2-|
eb)-3-----5------|

intro riff rhythm
eb)---------------------------|
bb)---------------------------|
gb)------7---------5----4-----|
db)-5----7(x8)7----5(x4)4(x4)-|
ab)-5(x8)5----7(x8)3----2-----|
eb)-3---------5---------------|

intro riff
eb)------------------------------------------------------------|
bb)-15151212131312-15151212131312-13131010121210-1313-12-10-10-|
gb)-12121212121212-12121212121212-12121212121212-1212-12-12-12-|
db)------------------------------------------------------------|
ab)------------------------------------------------------------|
eb)------------------------------------------------------------|

verse1
eb)---------------------|     |---------------------|
bb)---------------------|0    |---------------------|
gb)---------------------|     |-----------9999-7777-|
db)------5555-7777------|  x3 |------5555-----------|
ab)-5555-3333-5555-77-9-|0    |-5555-3333-7777-5555-|
eb)-3333-----------55-7-|     |-3333----------------|
    p.m................         p.m......

verse2
eb)-------------------------|      |-----------|
bb)-------------------------|      |-----------|
gb)-121212-12-12-12-12-12/9-|      |-9999-7777-|
db)-------------------------| then |-9999-7777-|
ab)-101010-10-10-10-10-10/7-|      |-7777-5555-|
eb)-------------------------|      |-----------|

chorus
eb)------------------------------|
bb)------------------------------|
gb)-------7-----------5----4-----|
db)-5-----7(x16)7-----5(x8)4(x8)-|
ab)-5(x16)5-----7(x16)3----2-----|
eb)-3-----------5----------------|

solo (needs work)
eb)-15------121417------91012-----910-121210910----|
bb)---121415------101214-----91012-----------------|
gb)------------------------------------------------|
db)------------------------------------------------|
ab)------------------------------------------------|
eb)------------------------------------------------|


eb-15------141517------151719------1719-2020191719-15--|
bb)---141517------151719------171920-------------------|
gb)----------------------------------------------------|
db)----------------------------------------------------|
ab)----------------------------------------------------|
eb)----------------------------------------------------|

after solo
play wth these
eb)-----
bb)-----
gb)-9-7-
db)-9-7-
ab)-7-5-
eb)-----

play chorus palm muted
Tap to rate this tab
# A B C D E F G H I J K L M N O P Q R S T U V W X Y Z