Song name
# A B C D E F G H I J K L M N O P Q R S T U V W X Y Z

Zutons - Secrets tab

-------------------------------------------------------------------------------
Secrets - Limp Wrist
Thee Official Limp Wrist Discography
-------------------------------------------------------------------------------
Tabbed by: axeslash
Email: holmzito@yahoo.com

Tuning: Standard

e|---------------------------------------|
B|---------------------------------------|
G|-----------------------7---8--8--8--8--|
D|-9--9--9--9-6----6--6--5---6--6--6--6--|
A|-7--7--7--7-4----4--4------------------|
E|---------------------------------------| x4

e|---------------------------------------------------------------|
B|---------------------------------------------------------------|
G|-9--X-X-X-X-X-X-X-X-X-X-X-X-X-X-9--X-X-X-X-X-X-X-X-X-X-X-X-X-X-|
D|-9--X-X-X-X-X-X-X-X-X-X-X-X-X-X-9--X-X-X-X-X-X-X-X-X-X-X-X-X-X-|
A|-7--X-X-X-X-X-X-X-X-X-X-X-X-X-X-7--X-X-X-X-X-X-X-X-X-X-X-X-X-X-|
E|---------------------------------------------------------------|

e|-------------------------------------------------|
B|-------------------------------------------------|
G|-9--X-X-X-X-X-X-X-X-X-X-X-X-X-X-9----------------|
D|-9--X-X-X-X-X-X-X-X-X-X-X-X-X-X-9----------------|
A|-7--X-X-X-X-X-X-X-X-X-X-X-X-X-X-7----------------|
E|-------------------------------------------------|

e|---------------------------------------|
B|---------------------------------------|
G|-----------------------7---8--8--8--8--|
D|-9--9--9--9-6----6--6--5---6--6--6--6--|
A|-7--7--7--7-4----4--4------------------|
E|---------------------------------------| x4

e|---------------------------------------------------------------|
B|---------------------------------------------------------------|
G|-9--X-X-X-X-X-X-X-X-X-X-X-X-X-X-9--X-X-X-X-X-X-X-X-X-X-X-X-X-X-|
D|-9--X-X-X-X-X-X-X-X-X-X-X-X-X-X-9--X-X-X-X-X-X-X-X-X-X-X-X-X-X-|
A|-7--X-X-X-X-X-X-X-X-X-X-X-X-X-X-7--X-X-X-X-X-X-X-X-X-X-X-X-X-X-|
E|---------------------------------------------------------------|

e|-----------------------------------------------------------------|
B|-----------------------------------------------------------------|
G|-9--X-X-X-X-X-X-X-X-X-X-X-X-X-X-9--------------------------------|
D|-9--X-X-X-X-X-X-X-X-X-X-X-X-X-X-9--------------------------------|
A|-7--X-X-X-X-X-X-X-X-X-X-X-X-X-X-7--------------------------------|
E|-----------------------------------------------------------------|


| /  slide up
| \  slide down
| h  hammer-on
| p  pull-off
| ~  vibrato
| +  harmonic
| x  Mute note
===============================================================================
Tap to rate this tab
 
# A B C D E F G H I J K L M N O P Q R S T U V W X Y Z