Nausea tab with lyrics by Agony Scene - Easy chords and tabs for guitar

Agony Scene – Nausea tab

Tuning : C G C F A D

Guitar 1 :---------------------|----0---------0------|------5---------5----|---------------------|-2-------2-1-------1-|---------------------|
Guitar 2 :
--------------------|-5---------5--------|-4--4-5----4--4-5---|-4---------3--------|--------------------|--------------------|
Guitar 1 :
---------------------|---------------0-----|---5---------5-------|-------6-5-----------|---------------------|-6---------5---------|
Guitar 1 :
-------0------------0-----|---0---0--------0---0-----|---------5------------5---|--------------------------|-2---2------2-1---1-------|--------------------------|
Guitar 1 :
-------0-------------0----|---------------------0----|---5-------------5-----5--|-----------6-5------------|--------------------------|-6---6---------5---5------|
distortion Guitar 2 pick slide Guitar 1 :
-------------------------------------------|-------------------------------------------|---------------------------0---------------|-1---1---1-1---1--1--0---------0-----------|-1---1---1-1---1--1--0---------------------|-1---1---1-1---1--1--0-------------12\\\\--|
Guitar 2 :
------------------------|------------------------|------------------------|-1---1---1-1---1--1--0--|-1---1---1-1---1--1--0--|-1---1---1-1---1--1--0--|
---------------------------------------|---------------------------------------|-5~---5\4-4~---4/5-5~---5/7-7~--4--4~--|---------------------------------------|-3~---3\2-2~---2/3-3~---3/5-5~--2--2~--|---------------------------------------|
Guitar 2 (very faint) :
--------------------------------------------|-8~---7-8-7~---7-8------8-8-8-8-10-10-10-7--|-0----0-0-0----0-0------0-0-0-0--0--0--0-0--|--------------------------------------------|--------------------------------------------|--------------------------------------------|
------------------|------------------|------------------|-0-0-0-0-0-0-0-0--|-0-0-0-0-0-0-0-0--|-0-0-0-0-0-0-0-0--|
-------------------|-------------------|-------------------|-0----0-0-0-0-0-0--|-0----0-0-0-0-0-0--|-0----0-0-0-0-0-0--|
Please rate this tab:
x1.0