Air Traffic - Still In Love tab

I saw the first tab of 'still in love' from Air Traffic, but not all the chords 
were correct so ... here it is:

Intro: Am|---------------0--0-----------------||-0-0-0-0-1--1--1--1--1--------------||-0-0-0-0-2--2--2--2--2--------------| X2|-0-0-0-0-2--2--2--2--2--------------||---------0--0--0--0-----------------||------------------------------------|
Strofe and chorus: Am Fmaj C E Am/G
|--0---(1)---0----0--------0------------||--1----1----1----0--------1------------||--2----2----0----1--------2------------||--2----3----2----2--------2------------||--0----3----3----2--------0------------||-------1---------0--------3------------|
Tip: They mostly play the three middle notes clear before changing a chord! Am Fmaj I'm still in love with the girl C E Am It's all her, now she knows I'm on my own Am Am (with note 'G' in the bas) I, I watch her come and I watch Fmaj her go... C E She knows my name and she thinks I'm lame Am Am (with the 'G') I'ts like a game of Fmaj G (power chord) C E lust and I don't know which way to turn Strofe 2: (it looks pretty much like strofe 1) She, she takes me to another world So turn around, face the crowd and let it out I'm so afraid I've been betrayed Just come away until the day I find the words to say The things I feel about her now during strofe 3: (guitar 2)
|-----------------------------------||--12-13--13-13-13-12-10-12---------||-----------------------------------| X4|-----------------------------------||-----------------------------------||-----------------------------------|
|--------------15-12-------------------||--12-13-13-12-------13-12-------------||--------------------------------------| X2|--------------------------------------||--------------------------------------||--------------------------------------|
|-------------------------------||--12-13-13-12-15-13-12---------||-----------------------14------| X2|-------------------------------||-------------------------------||-------------------------------|
|-----------------------------------||--12-13--13-13-13-12-10-12---------||-----------------------------------| X4|-----------------------------------||-----------------------------------||-----------------------------------|
|--------------15-12-------------------||--12-13-13-12-------13-12-------------||--------------------------------------| X2|--------------------------------------||--------------------------------------||--------------------------------------|
|-------------------------------||--12-13-13-12-15-13-12---------||-----------------------14------| X2|-------------------------------||-------------------------------||-------------------------------|
after this you need to play the chords (see strofe 1,2,3 ...) very soft!
|-0---0---(1)----3------8---------------||-1---1----1-----3------8---------------||-2---2----2-----4------9---------------| |-2---2----3--/--5--/---10--------------||-0---0----3--/--5--/---10--------------||-----3----1--/--3--/---8---------------|
harder ... harder ...
|--1-----6---7----------------------||--1-----6---7---9--9--9------------||--2-----7---8---9--10-9------------| |--3--/--8---9---9--9--9------------||--3--/--8---9---7--7--7------------||--1--/--6---7----------------------|
then the electric guitar coms:
|-----------------------------------||-----------------------------------||-----------------------------------| X2|--9-10-10-10-10-9-8-9--------------| |-----------------------------------||-----------------------------------|
|-----------------------------------||-----------------------------------||------------12-9-------------------| |--9-10-10-9------10-9--------------| X2|-----------------------------------||-----------------------------------|
now play the chords like a strofe but than in power chords... READY ENJOY!!! ENJOY!!! Made by Ben.p
Tap to rate this tab
 
# A B C D E F G H I J K L M N O P Q R S T U V W X Y Z