Andy Mckee - Common Ground tab

This is not my tab...i think it was originally made for Guitar Pro and when i got 
this tab it looked kinda messed up...and i kinda fixed it

AH Artificial harmonic
B  bend
X  slapped note
H  hammer on
P  pull off


Tuning: EGBDAD

E||----------------|---------------|B||-----3------3-3-|--3------3-3-3-|G||-----2----2-----|--2----2-----2-|D||-----0----------|--0--0-------0-|A||--------0-----3-|-----------3---|D||--0-------------|---------------|
|----------------|---------------||-----3------3-3-|--3------3-3-3-||-----2----2-----|--2----2-----2-||-----0----------|--0--0-------0-||--------0-----3-|-----------3---||--0-------------|---------------|
|----------------|---------------||-----3------3-3-|--3------3-3-3-||-----2----2-----|--2----2-----2-||-----0----------|--0--0-------0-||--------0-----3-|-----------3---||--0-------------|---------------|
|-----------------|---------------||-----3-------3-3-|--3------3-3-3-||-----2-----2-----|--2----2-----2-||-----0-----------|--0--0-------0-||---------0-----3-|-----------3---||--0--------------|---------------|
|-----10-10-10-10-|-----8----8----8----8--5-||-----10-10-10-10-|----10---10---10---10--6-||-----10-10-10-10-|---(b9)-(b9)-(b9)-(b9)-7-||------0--------0-|-------0---------0-------||-----------------|-------------------------||--0------0-------|---0--------0------------|
|--5--5--5----|--1p0--0--------------||--6--6--6----|----------3-3--1-1--3-||--7--7--7----|-------0--------------||-----0-----0-|-----------------0----||-------------|----------------------||--0----------|--0---------0---------|
AH|-----10-10-10------|---8--8--8--8----------||-----10-10-10------|--10-10-10-10----------||-----10-10-10----x-|---------------x-------||------0--------0---|------0-----------0----||-------------------|-----------------------||--0------0---------|---0--------0--------8-|
|--10-10-10-10-----8-|--8-8-8---8--10-||--10-10-10-10-----8-|--8-8-8---8--10-||--10-10-10-10---(b9)|--------(b9)-10-||------8-----------0-|------0-------0-||------------0-------|----------0-----||---8----------------|--0-------------|
|----10-10-10-10-|--12-12-12-12--8-||----10-10-10-10-|--13-13-13-13--8-||----10-10-10-10-|--12-12-12-12(b9)||-----0--------0-|------0--------0-||----------------|-----------------||--0-----0-------|---0--------0----|
|----8---8---8----|--1p0--0--------------|---------1-1----||----8---8---8----|----------3-3--1-1--3-|-3--3--3--------||--(b9)(b9)(b9)---|----------------------|----2--2------2-||-----0--------0--|-----------------0----|----0------0----||-----------------|----------------------|----------------||-0-------0-------|--0---------0---------|-0--------------|
|--3p1--1----------|---------0-0-------||----------3-3-1-1-|--1--------------3-||------------------|-----0-0------0----||-------0--------0-|-------2---------3-||------------------|--0--------0-------||--0---------0-----|-------------------|
|------------------|-------------|--0--------0-||--3--3-------3--3-|--3--3-----3-|-----5-------||--------0-0-------|--------0----|--------0----||-----3----------3-|-----3-----3-|-----5-----0-||--1---------------|--1-----1----|--3-----3----||------------------|-------------|-------------|
|--0--1--0----|--------0----|-------------||-----------1-|--1--------3-|--3--3-----3-||-------------|-----0-------|--------0----||-----0-----0-|-----2-----3-|-----3-----3-||-------------|--0-----0----|--1-----1----||--0-----0----|-------------|-------------|
|--0--------0-|--0--1--0----|--------0----||-----5-------|-----------1-|--1--------3-||--------0----|-------------|-----0-------||-----5-----0-|-----0-----0-|-----2-----3-||--3-----3----|-------------|--0-----0----||-------------|--0-----0----|-------------|
|-------------|--0----------|--------------------------||--3--3-----3-|-----5--5--3-|-------3----------3--3----||-------------|-----------2-|-------2-------2----------||-----3-----3-|-----5-----0-|-------0------------------||--1-----1----|--3----------|------------0--------3----||-------------|-------------|--0-----------------------|
|---------------------------|----------------||--3----------3h--3----3----|-----3------3-3-||--2-------2-----------2----|-----2----2-----||--0----0--------------0----|-----0----------||-----------------3---------|--------0-----3-||---------------------------|--0-------------|
|-----------------|-----------------||--3-------3-3--3-|-----3-------3-3-||--2-----2------2-|-----2-----2-----||--0--0---------0-|-----0-----------||------------3----|--------0------3-||-----------------|--0--------------|
|-----------------|-------------------||--3-------3-3--3-|-----3-------3-3---||--2-----2------2-|-----2-----2-------||--0--0---------0-|-----0-------------||------------3----|--------0--------3-||-----------------|--0----------------|
|-----------------||----10-10-10-10-||--3-------3-3--3-||----10-10-10-10-||--2-----2------2-||----10-10-10-10-||--0--0---------0-||-----0--------0-||------------3----||----------------||-----------------||--0-----0-------|
|-----8----8----8----8--5-|--5--5--5----||----10---10---10---10--6-|--6--6--6----||---(b9)-(b9)-(b9)-(b9)-7-|--7--7--7----||-------0---------0-------|-----0-----0-||-------------------------|-------------||---0--------0------------|--0----------|
|--1p0-0-----------|----10-10-10------||--------3-3-1-1-3-|----10-10-10------||------0-----------|----10-10-10----x-||--------------0---|-----0--------0---||------------------|------------------||--0-------0-------|--0----0----------|
AH|---8---8--8---8-------|--10-10-10-10---8-||--10--10-10--10-------|--10-10-10-10---8-||----------------x-----|--10-10-10-10-(b9)||-------0----------0---|------8---------0-||----------------------|------------0-----||---0----------0-----8-|---8--------------|
|--8-8-8----8--10-|----10-10-10-10-||--8-8-8----8--10-|----10-10-10-10-||---------(b9)-10-|----10-10-10-10-||------0--------0-|-----0--------0-||-----------0-----|----------------||--0--------------|--0-----0-------|
|--12--12-12--12--8-|----8----8----8---||--13--13-13--13--8-|----8----8----8---||--12--12-12--12(b9)|--(b9)-(b9)-(b9)--||-------0---------0-|------0---------0-||-------------------|------------------||---0----------0----|--0--------0------|
|--1p0--0------------|----------1-1---||----------3-3-1-1-3-|--3--3--3-------||--------------------|-----2--2-----2-||----------------0---|-----0------0---||--------------------|----------------||--0---------0-------|--0-------------|
|--3p1-1---------|--------0-0-----||--------3-3-1-1-|--1-----------3-||----------------|----0-0-----0---||------0-------0-|------2-------3-||----------------|--0-------0-----||--0-------0-----|----------------|
|----------------|-------------|--0--------0-||--3--3-----3--3-|--3--3-----3-|-----5-------||-------0-0------|--------0----|--------0----||-----3--------3-|-----3-----3-|-----5-----0-||--1-------------|--1-----1----|--3-----3----||----------------|-------------|-------------|
|--0--1--0----|--------0----|-------------||-----------1-|--1--------3-|--3--3-----3-||-------------|-----0-------|--------0----||-----0-----0-|-----2-----3-|-----3-----3-||-------------|--0-----0----|--1-----1----||--0-----0----|-------------|-------------|
|--0--------0-|--0--1--0----|--------0----||-----5-------|-----------1-|--1--------3-||--------0----|-------------|-----0-------||-----5-----0-|-----0-----0-|-----2-----3-||--3-----3----|-------------|--0-----0----||-------------|--0----------|-------------|
|-------------|--0-----------|----------------------||--3--3-----3-|-----5-----10-|--10--10-------10--10-||--------0----|--------0-----|----------0-0---------||-----3-----3-|-----5-----10-|------10-----------10-||--1-----1----|--3-----3-----|---8--------8---------||-------------|--------------|----------------------|
|--0-----------------|-----0--0---------||-----10--10------10-|--10-------10-----||------------0-------|------------------||-----10-------10----|-------10------10-||--8-------8---------|---8--------8-----||--------------------|------------------|
|-----------0-0-------|--------------0-----||--10-10-10-----10-10-|-----------10-------||---------------------|---------0----------||--------10--------10-|------12---------12-||---8---------8-------|--10---------10-----||---------------------|--------------------|
|---0-----------0-|---0---0------0-|-----0------0-||--12----------13-|--13--13------8-|-----8-----10-||---0-----------0-|---0---0------0-|-----0------0-||------12------14-|------14----(b9)|---(b9)----10-||--10------10-----|--12------12----|--7-----7-----||-----------------|----------------|--------------|
|------------------|--0-----------------||------------10-10-|-----10--10------10-||--------0-0-------|------------0-------||-----10--------10-|-----10-------10----||--8-------8-------|--8-------8---------||------------------|--------------------|
|-----0--0---------|-----------0---------||--10-------10--10-|-----10--------10----||------------------|---------------------||-------10------10-|--------10--------10-||---8--------8-----|--8----------8-------||------------------|---------------------|
|--------------0-----|---0-----------0-||-----------12-------|--12----------13-||---------0----------|---0-----------0-||------12---------12-|------12------14-||--10---------10-----|--10------10-----||--------------------|-----------------|
|-------0------0-|--------0-------|-------------||------13------8-|--------8-----0-|--0--1--1----||-------0------0-|--------0-----0-|--0--0--0----||------14----(b9)|------(b9)----0-|--0--3--3----||--12------12----|--7--------7----|-----------x-||----------------|----------------|-----------x-|
|-----------0--|--------------|-------------||-----------1--|-----1--1-----|-----1-----3-||-----------0--|-----0--0-----|-----0-----0-||-----3--3--3--|--3--3--3--x--|--x--3--3--5-||--x--3--3-----|--3--------x--|--x-----3----||--x--3--3-----|--3--------x--|--x-----3----|
|-------------|-----0-----3-|-----3-------||-----3--3----|-----3-----1-|-----1-----0-||-----0--0----|-----0-----0-|-----0-----0-||--5--5--5--x-|--x--5--5----|--2--------2-||--5--------x-|--x-----5----|--0-----x--2-||--5--------x-|--x-----5----|--x-----x----|
|-------------|-------------|-----------0-||-----0-----0-|--0--1--1----|-----------1-||-----0-----0-|--0--0--0----|-----------0-||--2--2--x--0-|--0--3--3----|-----3--3--3-||--2--2--x----|-----------x-|--x--3--3----||--2-----x----|-----------x-|--x--3--3----|
|-------------|-------------|-------------||-----1--1----|-----1-----3-|-----3--3----||-----0--0----|-----0-----0-|-----0--0----||--3--3--3--x-|--x--3--3--5-|--5--5--5--x-||--3--------x-|--x-----3----|--5--------x-||--3--------x-|--x-----3----|--5--------x-|
|-----0-----3-|-----3-------|-------------||-----3-----1-|-----1-----0-|-----0-----3-||-----0-----0-|-----0-----0-|-----0-----2-||--x--5--5----|--2--------2-|--2--2--x--0-||--x-----5----|--0-----x--2-|--2--2--x----||--x-----5----|--x-----x----|--2-----x----|
|-----------------|----------------||-----3-------3-3-|--3------3-3--3-||-----2-----2-----|--2----2------2-||-----0-----------|--0--0--------0-||--------0------3-|-----------3----||--0--------------|----------------|
|-----------------|----------------||-----3-------3-3-|--3------3-3--3-||-----2-----2-----|--2----2------2-||-----0-----------|--0--0--------0-||--------0------3-|-----------3----||--0--------------|----------------|
|-----------------|----------------||-----3-------3-3-|--3------3-3--3-||-----2-----2-----|--2----2------2-||-----0-----------|--0--0--------0-||--------0------3-|-----------3----||--0--------------|----------------|
|-----------------|----------------------||-----3-------3-3-|----------------------||-----2-----2-----|----------------------||-----0-----------|--3-2-0----0----------||--------0------3-|--------3----3-2-0----||--0--------------|--------------------3-|
|-----------------|----10-10-10-10-||--3-------3-3--3-|----10-10-10-10-||--2-----2------2-|----10-10-10-10-||--0--0---------0-|-----0--------0-||------------3----|----------------||-----------------|--0-----0-------|
|----8---8---8---8--5-|--5--5--5----||---10--10--10--10--6-|--6--6--6----||--(b9)(b9)(b9)(b9)-7-|--7--7--7----||----------0-------0--|-----0-----0-||---------------------|-------------||----0--------0-------|--0----------|
|--1p0-0-----------|----10-10-10------||--------3-3-1-1-3-|----10-10-10------||------0-----------|----10-10-10----x-||--------------0---|-----0--------0---||------------------|------------------||--0-------0-------|--0----0----------|
AH|---8---8--8---8-------|--10-10-10-10---8-||--10--10-10--10-------|--10-10-10-10---8-||----------------x-----|--10-10-10-10-(b9)||-------0----------0---|------8---------0-||----------------------|------------0-----||---0----------0-----8-|---8--------------|
|--8-8-8----8--10-|----10-10-10-10-||--8-8-8----8--10-|----10-10-10-10-||---------(b9)-10-|----10-10-10-10-||------0--------0-|-----0--------0-||-----------0-----|----------------||--0--------------|--0-----0-------|
|--12--12-12--12--8-|---8----8----8--||--13--13-13--13--8-|---8----8----8--||--12--12-12--12(b9)|-(b9)-(b9)-(b9)-||-------0---------0-|-----0--------0-||-------------------|----------------||---0----------0----|--0--------0----|
|--1p0--0------------|----------1-1---||----------3-3-1-1-3-|--3--3--3-------||--------------------|-----2--2-----2-||----------------0---|-----0------0---||--------------------|----------------||--0---------0-------|--0-------------|
|--3p1-1---------|--------0-0-----||--------3-3-1-1-|--1-----------3-||----------------|----0-0-----0---||------0-------0-|------2-------3-||----------------|--0-------0-----||--0-------0-----|----------------|
|----------------|-------------|--0--------0-||--3--3-----3--3-|--3--3-----3-|-----5-------||-------0-0------|--------0----|--------0----||-----3--------3-|-----3-----3-|-----5-----0-||--1-------------|--1-----1----|--3-----3----||----------------|-------------|-------------|
|--0--1--0----|--------0----|-------------||-----------1-|--1--------3-|--3--3-----3-||-------------|-----0-------|--------0----||-----0-----0-|-----2-----3-|-----3-----3-||-------------|--0-----0----|--1-----1----||--0-----0----|-------------|-------------|
|--0--------0-|--0--1--0----|--------0----||-----5-------|-----------1-|--1--------3-||--------0----|-------------|-----0-------||-----5-----0-|-----0-----0-|-----2-----3-||--3-----3----|-------------|--0-----0----||-------------|--0----------|-------------|
|-------------|--0-----------|----------------------||--3--3-----3-|-----5-----10-|--10--10-------10--10-||--------0----|--------0-----|----------0-0---------||-----3-----3-|-----5-----10-|------10-----------10-||--1-----1----|--3-----3-----|---8--------8---------||-------------|--------------|----------------------|
|--0-----------------|-----0--0---------||-----10--10------10-|--10-------10-----||------------0-------|------------------||-----10-------10----|-------10------10-||--8-------8---------|---8--------8-----||--------------------|------------------|
|-----------0-0-------|--------------0-----||--10-10-10-----10-10-|-----------10-------||---------------------|---------0----------||--------10--------10-|------12---------12-||---8---------8-------|--10---------10-----||---------------------|--------------------|
|---0-----------0-|---0---0------0-|-----0------0-||--12----------13-|--13--13------8-|-----8-----10-||---0-----------0-|---0---0------0-|-----0------0-||------12------14-|------14----(b9)|---(b9)----10-||--10------10-----|--12------12----|--7-----7-----||-----------------|----------------|--------------|
|------------------|--0-----------------||------------10-10-|-----10--10------10-||--------0-0-------|------------0-------||-----10--------10-|-----10-------10----||--8-------8-------|--8-------8---------||------------------|--------------------|
|-----0--0---------|-----------0---------||--10-------10--10-|-----10--------10----||------------------|---------------------||-------10------10-|--------10--------10-||---8--------8-----|--8----------8-------||------------------|---------------------|
|--------------0-----|---0-----------0-||-----------12-------|--12----------13-||---------0----------|---0-----------0-||------12---------12-|------12------14-||--10---------10-----|--10------10-----||--------------------|-----------------|
|-------0------0-|--------0-------|-------------||------13------8-|--------8-----0-|--0--1--1----||-------0------0-|--------0-----0-|--0--0--0----||------14----(b9)|------(b9)----0-|--0--3--3----||--12------12----|--7--------7----|-----------x-||----------------|----------------|-----------x-|
|-----------0--|--------------|-------------||-----------1--|-----1--1-----|-----1-----3-||-----------0--|-----0--0-----|-----0-----0-||-----3--3--3--|--3--3--3--x--|--x--3--3--5-||--x--3--3-----|--3--------x--|--x-----3----||--x--3--3-----|--3--------x--|--x-----3----|
|-------------|-----0-----3-|-----3-------||-----3--3----|-----3-----1-|-----1-----0-||-----0--0----|-----0-----0-|-----0-----0-||--5--5--5--x-|--x--5--5----|--2--------2-||--5--------x-|--x-----5----|--0-----x--2-||--5--------x-|--x-----5----|--x-----x----|
|-------------|-------------|-----------0-||-----0-----0-|--0--1--1----|-----------1-||-----0-----0-|--0--0--0----|-----------0-||--2--2--x--0-|--0--3--3----|-----3--3--3-||--2--2--x----|-----------x-|--x--3--3----||--2-----x----|-----------x-|--x--3--3----|
|-------------|-------------|-------------||-----1--1----|-----1-----3-|-----3--3----||-----0--0----|-----0-----0-|-----0--0----||--3--3--3--x-|--x--3--3--5-|--5--5--5--x-||--3--------x-|--x-----3----|--5--------x-||--3--------x-|--x-----3----|--5--------x-|
|-----0-----3-|-----3-------|-------------||-----3-----1-|-----1-----0-|-----0-----3-||-----0-----0-|-----0-----0-|-----0-----2-||--x--5--5----|--2--------2-|--2--2--x--0-||--x-----5----|--0-----x--2-|--2--2--x----||--x-----5----|--x-----x----|--2-----x----|
|-----------------|----------------||-----3-------3-3-|--3------3-3--3-||-----2-----2-----|--2----2------2-||-----0-----------|--0--0--------0-||--------0------3-|-----------3----||--0--------------|----------------|
|-----------------|----------------||-----3-------3-3-|--3------3-3--3-||-----2-----2-----|--2----2------2-||-----0-----------|--0--0--------0-||--------0------3-|-----------3----||--0--------------|----------------|
|-----------------|----------------||-----3-------3-3-|--3------3-3--3-||-----2-----2-----|--2----2------2-||-----0-----------|--0--0--------0-||--------0------3-|-----------3----||--0--------------|----------------|
|-----------------|----------------------||-----3-------3-3-|----------------------||-----2-----2-----|----------------------||-----0-----------|--3-2-0----0----------||--------0------3-|--------3----3-2-0----||--0--------------|--------------------3-|
|-------------------|----------------|------||--3p1----1---------|----------------|----3-||-------2---2p0---0-|----------------|----2-||---------------3---|--2p0---0-------|----0-||-------------------|------3---2p0---|------||-------------------|--------------3-|--0---|
Tap to rate this tab
 
# A B C D E F G H I J K L M N O P Q R S T U V W X Y Z