To Let Myself Go tab with lyrics by Ane Brun - Easy chords and tabs for guitar

Ane Brun – To Let Myself Go tab

Ane Brun - To let myself go
Album: A Temporary dive 2005
Tunning: Open Gminor (D G D g a# d)
Tab by Aleksandar Miler
Corrections and suggestions of any kind are welcome.


These theme is played trough the whole song with small variations.


|----5-5-----5-/-7-7--|----5-5-----5-\3-3---| |----0-0-----0-----0--|----0-0-----0----0---| |---------0--0-------0|---------0--0------0-| |---------------------|---------------------| |-0-------------------|-0-------------------| |---------------------|---------------------|
|------------------------------------||--------5-5-----5-/-7--7------------| |--------0-0-----0---0--0----0-7b-7--| |-----------------------------------0||----0-5------5--5-/-7--7---0--------| |------------------------------------|
|----5-5-----5-/-7-7--|----5-5-----5-\3-3---| |----0-0-----0-----0--|----0-0-----0----0---| |---------0--0-------0|---------0--0------0-| |---------------------|---------------------| |-0-------------------|-0-------------------| |---------------------|---------------------|
|--------------------------------------| |-----5-5-----5-/-7--7-----------------| |-----0-0-----0---0--0------0-0-0------| |---------------------------0-0-0--0---| |-0-5------5--5-/-7--7---0-----------0-| |--------------------------------------|
Solo starts at 01:20
|----12-12---12-\-10-|-----8-8--8\-5-| |--------------------|---------------| |----12-12---12-\-8--|-----7-7--7\-3-| |--------------------|---------------| |-0------------------|-0-------------| |--------------------|---8-----------|
|---------------------------------------| |------5-5-----5-/-7--7-----------------| |------0-0-----0---0--0------0-0-0------| |----------------------------0-0-0--0---| |-0-5--5-5-----5-/-7--7---0-----------0-| |---------------------------------------|
|---------------------------|---------------------------------------| |---------------------------|------5-5-----5-/-7--7-----------------| |-7-7-7\5--5------3-3-3-3---|------0-0-----0---0--0------0-0-0------| |-----------------5-5-5-5---|----------------------------0-0-0--0---| |------------0-3------------|-0-5--5-5-----5-/-7--7---0-----------0-| |---------------------------|---------------------------------------|
|-----5--------------5----------|-----0--------------0--| |-------4--------------4--------|-2-----2-------2------2| |-0-0------------0-0------------|---0--------------0----| |-----------0--------------0----|-----------------------| |-------------0--------------0--|-----------0-2---------| |-------------------------------|-----------------------|
|------------------|---------------------| |-------3----3---3-|-------3----3---3----| |-----0---0--0---0-|-----0---0--0---0----| |------------------|---------------------| |-0-3----------3---|-0-3----------3------| |------------------|---------------------|
|--------------------|--------------------|--------------| |-------3----3----3--|-------3----3----3--|--------4-1p0-| |-----0---0--0----0--|-----0---0--0----0--|----0-0-------| |--------------------|--------------------|--------------| |-0-2-----------3----|-0-2-----------2----|-0------------| |--------------------|--------------------|--------------|
|--------0------|--------0-----|--------0------|--------0------| |---0--------0--|---0--------0-|---0--------0--|---0---------0-| |-----2----2----|-----2----2---|-----2----2----|-----2-----2---| |-2------2------|-2------2-----|-0------0------|-0------0------| |---------------|--------------|---------------|---------------| |---------------|--------------|---------------|---------------|
|--------0------|--------0-----|--------0------|--------0------| |---0--------0--|---0--------0-|---0--------0--|---0---------0-| |-----2----2----|-----2----2---|-----2----2----|-----2-----2---| |-2------2------|-2------2-----|-0------0------|-0------0------| |---------------|--------------|---------------|---------------| |---------------|--------------|---------------|---------------|
|--------0------|--------0-----|-------------------------------| |---0--------0--|---0--------0-|-------------------------------| |-----2----2----|-----2----2---|-----back to the main theme----| |-2------2------|-2------2-----|-------------------------------| |---------------|--------------|-0-----------------------------| |---------------|--------------|-------------------------------|
h = hamer on p = pull of / = slide up \ = slide down
Please rate this tab:
x1.0