Antonio Vivaldi - 4 Seasons Summer tab

Summer Prestoa bit easier than the rest..E||---------------------------|---------------------------|B||---------------------------|---------------------------|G||--12-0-0-0-0-0-0-0-0-0-0-0-|--10-0-0-0-0-0-0-0-0-0-0-0-|D||---------------------------|---------------------------|A||---------------------------|---------------------------|E||---------------------------|---------------------------|
--------------------------|-----------------------|------|--------------------------|-----------------------|------|--8-0-0-0-0-0-0-0-0-0-0-0-|--7-0-0-0-0-0-0-0-0----|------|--------------------------|-----------------------|------|--------------------------|-----------------------|------|--------------------------|-----------------------|------|
---------------------------|---------------------------|---------------------------|---------------------------|---------------------------|---------------------------|--12-0-0-0-0-0-0-0-0-0-0-0-|--10-0-0-0-0-0-0-0-0-0-0-0-|---------------------------|---------------------------|---------------------------|---------------------------|
--------------------------|-----------------------|--------------------------|-----------------------|--------------------------|-----------------------|--8-0-0-0-0-0-0-0-0-0-0-0-|--7-0-0-0-0-0-0-0-0----|--------------------------|-----------------------|--------------------------|-----------------------|
----------------|-------------------------|----------------|-------------------------|----------------|---7-5-3-----------------|----------------|---------7-5-4-----------|----------------|---------------7-5-3-----|----------------|---------------------6-5-|
--------------------------|--------------------------|--------------------------|----8-6-4-----------------|----7-5-3-----------------|----------7-5-3-----------|----------7-5-4-----------|----------------7-5-3-----|----------------7-5-3-----|----------------------6-5-|--3-------------------6-5-|--3-----------------------|
--------------------------|-------------------------------|----8-6-4-----------------|----11-10-8--------------------|----------7-5-3-----------|------------10-8-7-------------|----------------7-5-------|-------------------10-8-7------|--3-----------------8-6-5-|--------------------------10-8-|--------------------------|--8----------------------------|
----6-5-3-----------------|----10-8-6------------------|----------6-4-3-----------|-----------10-8-7-----------|----------------5-3-2-----|------------------9-7-5-----|----------------------5-3-|------------------------8-7-|--6-----------------------|--6-------------------------|--------------------------|----------------------------|
----10-8-6------------------|----10-8-6------------------|-----------10-8-7-----------|-----------10-8-7-----------|------------------9-7-5-----|------------------9-7-5-----|--5---------------------8-7-|--5---------------------8-7-|----------------------------|----------------------------|----------------------------|----------------------------|
----10-8-6------------------|--------------------------|-----------10-8-7-----------|--------------------------|------------------9-7-5-----|--7-0-0-0-7-0-0-0-7-0-0-0-|--5---------------------8-7-|--------------------------|----------------------------|--------------------------|----------------------------|--------------------------|
------------------5----|------------------5----|------------5-7-8------|------------5-7-8------|--------5-7------------|--------5-7------------|--0-7-8----------------|--0-7-8----------------|-----------------------|-----------------------|-----------------------|-----------------------|
---------------------6----|-------------------8-10----|--------------7-8-10------|-----------8-10-11---------|----------7-8-------------|----7-9-11-----------------|-----8-10-----------------|--0------------------------|--10----------------------|---------------------------|--------------------------|---------------------------|
------------------5----|------------------5----|-------------------6----|------------5-7-8------|------------5-7-8------|------------7-8-10------|--------5-7------------|--------5-7------------|--------7-8-------------|--0-7-8----------------|--0-7-8----------------|---8-10-----------------|-----------------------|-----------------------|------------------------|-----------------------|-----------------------|------------------------|
------------------8-10----|--------------------------------------|----------8-10-11---------|--11----------11----------11----------|---7-9-11-----------------|-----12----------12----------12-------|--------------------------|--------12----------12----------12----|--------------------------|-----------13----------13----------13-|--------------------------|--------------------------------------|
--------------------------|--------------------------|--3-------3-------3-------|--------------------------|----3-------3-------3-----|--------------------------|------5-------5-------5---|--5-------5-------5-------|--------5-------5-------5-|----5-------5-------5-----|--------------------------|------8-5-----8-5-----8-5-|
--------------------------|--------------------------|--------------------------|--------------------------|--0---0---0---0---0---0---|--0---0---0---0---0---0---|----0---0---0---0---0---0-|----1---1---1---1---1---1-|--2---2---2---2---2---2---|--3---3---3---3---3---3---|--------------------------|--------------------------|
--------------------------|--------------------------|--------------------------|--------------------------|--0---0---0---0---0---0---|--2---2---2---2---2---2---|----2---2---2---2---2---2-|----3---3---3---3---3---3-|--4---4---4---4---4---4---|--5---5---5---5---5---5---|--------------------------|--------------------------|
--------------------------|--------------------------|--------------------------|--------------------------|--2---2---2---2---2---2---|--2---2---2---2---2---2---|----2---2---2---2---2---2-|----2---2---2---2---2---2-|--5---5---5---5---5---5---|--4---4---4---4---4---4---|--------------------------|--------------------------|
-------------------------|-----------------------------9-|--10------------||-------------------------|---------8-10--------8-10-12---|----------------||--------------6-7--------|--7-9-10------7-9-10-----------|----------------||--------5-7-9-----7-9-11-|-------------------------------|----------------||8-5-7-8------------------|-------------------------------|----------------||-------------------------|-------------------------------|--0-------------||
have fun
Tap to rate this tab
 
# A B C D E F G H I J K L M N O P Q R S T U V W X Y Z