Black Sabbath - Iron Man tab version 1

this is the REAl version for iron man...the one most people 
are using is single notes...its supposed to be used with power chords

IM me with any questions

AIM sn- stewie4evrr

Main riff


----------------------------------------------------------------------------------------------------------------------------------------------------------2---5---5---7--7---9-8-9-8-9-8--------0---3---3---5--5---7-6-7-6-7-6--------------------------------------------
Bridge ( repeat twice ) ------------------------------------------------------------------------------------------------------------------7------3-3-3-----------5-5---5-4----0-2-3-4-5-5-
other riff repeat twice***
( he just stares at the world.... )--------------------------------------------------------------------------------------------------5-6-7------0-0-2-3-4-5-6-7--------------------------------------
riff before solo ( repeat twice )
-----------------------------------------------------------------------------------5-6-7----------------------------5-6-7-----------------------------3-3-5-5-----
Solo
|---------------------------------------------|---------------------------------------------|---------------------------------------------|-11-9-------------------11-9-----------------|------11-10-9-7--------------11-10-9-7-------|----------------7-7/9-9----------------7-7h9-
|----------------------------------------------------------|----------------------------------------------------------|----------------------------------9-9---------9-9---------|-------------------------9-9-9h11-----11p9--------11p9----|-----7h9-9p7----7h9-9/11-------------------11----------11-|-7h9---------9h-------------------------------------------
|--------------9-------------------------------------------|-----------/9---12-9-----------------------9-12p9----9----|---------------------11-9-9-----------9h11--------11------|-9h11-11--------------------11-9-9h11---------------------|----------------------------------------------------------|----------------------------------------------------------
|------------------------9--------/14-14-14-14p12----------|-12p9----9-12p9----9-12---12-9-9-----------------14h-14---|------11--------11----------------------------------------|----------------------------------------------------------|----------------------------------------------------------|----------------------------------------------------------
|--------9-9-----------------------------------------------|-12-14------12p9-----9-12-12p9----------------------------|-----------------11h-----------11h-11p9-----9-9-----------|----------------------------------------11h-----11p9------|-----------------------------------------------------11---|----------------------------------------------------------
|----------------------------------------------------------|----------------------------------------------------------|------9-9---------------9---------------------------------|-9h11-----11p9-----9h11---9-9h11-9h11-9h11-9h11-9h11-11---|---------------11h----------------------------------------|----------------------------------------------------------
|----------------------------------------------------------|----------------------------------------------------------|----------------------------------------------------------|-9h11-9h11-9h11-9h11-9h11-11-11-9-----------------11-9----|----------------------------------11-10-9-7------------11-|--------------------------------------------7-7/9---------
|--------------|--------------|--------------|--------------|-10-9-7-------|--------7-7/9-
Tap to rate this tab
 
# A B C D E F G H I J K L M N O P Q R S T U V W X Y Z