Black Sabbath - Black Sabbath tab

Black Sabbath- Black Sabbath

1. Black Sabbath
2. The Wizard
3. Wasp/Behind The Wall All Sleep/Bassically/N.I.B.
4. Wicked World
5. A Bit Of Finger/Sleeping Village/Warning

This is a complication, put together by Cowboys9224. Original tab makers are
TheMutts, Mikedeit, red9535, and Electricace.

Artist: Black Sabbath
Album: Black Sabbath
Song:  Black Sabbath
Standard Tuning
Tabbed: metaljunkie22

|---------------------------------------------------------------------------||---------------------------------------------------------------------------||---------------------------------------------------------------------------||---------5------------------------------------5----------------------------||----5---------4h5p4h5p4h5p4h5p4---------5-------------4tr------------------||----3-----------------------------------3----------------------------------|
|----------------------------||----------------------------||----------------------------||----------5-----------------| After each verse you play the intro|-------------------4--------||---3------------------------|
heres the little thing that comes after youve played the two verses and the into after the second verse where ozzy sings "IS THIS THE END MY FRIEND SATANS COMIN ROUND THE BEND...." and so on (PALM MUTE THIS SECTION!!!)
|---------------------------------||---------------------------------||---------------------------------||---------------------------------||-----------3-5-6-5-3---3-5-------||---3-3-3-6-----------6-----------|
here are the chords that are played right before the solo and underneath the solo... the trick is at the beginning you let the notes ring out but while you are holding them use a wah wah pedal and puch down and release qickly to give it that sound
|-------3--------------3----------------------------------------------------||-------3--------------3----------------------------------------------------||-------4--------------3----------------------------------------------------||-------5--------------3----------------------------------------------------||-------5--------------3----------------------------------------------------||-------3--------------3----------------------------------------------------|
This is the guitar solo that is played overtop of those chords|--------------------------------------------3------------------------------||--------------------------------3---3----3--3--3---6---8-----10------------||-----------------------------3--5^--5^---5^----5^--8^--10^---12^-----------||---5p3----5----5--3----3--5------------------------------------------------||--------5------------------------------------------------------------------||---------------------------------------------------------------------------|
|-------15-------------------18^---18^---18p15-----18p15-----18^-15h18p15---||-----15---18^--18^--18^---15------------------18--------18---------------18||--17^----------------------------------------------------------------------||---------------------------------------------------------------------------||---------------------------------------------------------------------------||---------------------------------------------------------------------------|
|-----15-15------15----------------15------15------15------15------15-----15||--18-------18^-----18-15--------15------15------15------15------15-----15--||----------------------------17^------17^-----17^-----17^-----17^----17^----||---------------------------------------------------------------------------||---------------------------------------------------------------------------||---------------------------------------------------------------------------|
|-------15-------------15----------------------------18^--15h18p15-------18^||-----15-------------15-------15-18--18^-----18^-------------------18-------||--17^-----17^----17^------17^------------15------15------------------------||---------------------------------------------------------------------------||---------------------------------------------------------------------------||---------------------------------------------------------------------------|
|--15h18-15-----18-15-----18p15h18p15-18p15h18p15-18p15h18p15-18p15h18p15---||-----------18--------18----------------------------------------------------||---------------------------------------------------------------------------||---------------------------------------------------------------------------||---------------------------------------------------------------------------||---------------------------------------------------------------------------|
|--18^--18^--18-15----------15-15----------------------15-------------------||------------------18---18^--------18-15-------------15----18-15------------||----------------------------------------17-15tr--17^------------17---------||---------------------------------------------------------------------------||---------------------------------------------------------------------------||---------------------------------------------------------------------------|
|-------------------------------15------15------15-------------15/----------||-----------------------------15------15------15-----18^--18^---------------||--15------------------15--17^-----17^-----17^------------------------------||------17p15h17--15h17------------------------------------------------------||---------------------------------------------------------------------------||---------------------------------------------------------------------------|
this is after the solo do the wah wah pedal thing i explained earlier in the tab for the chords a couple time
|-----3----------3----------------------------------------------------------||-----3----------3----------------------------------------------------------||-----4----------3----------------------------------------------------------||-----5----------3----------------------------------------------------------||-----5----------3----------------------------------------------------------||-----3----------3----------------------------------------------------------|
after hitting those chords with the wah wah a couple of times you do this pattern for them (dont let any of these chords ring out)
|-----3-----3-3-3--3----3-3-3--3-----3-3-3--3-----3-3-3--| play this|-----3-----3-3-3--3----3-3-3--3-----3-3-3--3-----3-3-3--| progression|-----4-----4-4-4--4----4-4-4--3-----3-3-3--3-----3-3-3--| twice|-----5-----5-5-5--5----5-5-4--3-----3-3-3--3-----3-3-3--||-----5-----5-5-5--5----5-5-4--3-----3-3-3--3-----3-3-3--||-----3-----3-3-3--3----3-3-3--3-----3-3-3--3-----3-3-3--|
heres the very end of the song(dont let any of these chords ring out|----3-----3-3-3--3---------------------------------------------------------||----3-----3-3-3--3---------------------------------------------------------||----4-----4-4-4--4---------------------------------------------------------||----5-----5-5-5--5---------------------------------------------------------||----5-----5-5-5--5---------------------------------------------------------||----3-----3-3-3--3---------------------------------------------------------|
Artist: Black Sabbath Album: Black Sabbath Song: The Wizard Tabbed: TheMutts Gtr I (E A D G B E) - 'Tony Iommi - Rhythm/Lead w/dist' Gtr II (E A D G B E) - 'Tony Iommi - Rhythm w/dist'
Intro Gtrs I, II|---------------|----------------------------||---------||o--------------|---5-5---------------------o||---------||---------------|---5-5b5.5------------------||---------||---------------|---------------5------------||---------||o-7--10--7-----|-----------5h7---7s5-3-----o||---------||--5---8--5-----|-----------------------3h5--||-5-------| |-Rhy Fig 1 end Rhy Fig 1-||-Fill 1-|
Gtr I|--------------------------------|--------------------------||--------------------------------|--------------------------||--------------------------------|-----------5--------------||-------------------------5-5-7--|-7p5---5h7---7-7p5--------||-3-5-3h5p3-3-5-3h5p3-5h7--------|-----7-------------7-5h7--||--------------------------------|--------------------------|
|-------------------------------------------|------------------------||-----------5-8-5---------------------------|------------------------||-7b9==(7)r-------7b9==(7)r(7)p5-7p5--------|-----------5------------||------------------------------------7-5h7--|-----5-5h7---7p5---5h7--||-------------------------------------------|-5h7-------------7------||-------------------------------------------|------------------------|
Gtrs I, II Rhy Fig 1 x2 Fill 1
Pre-Verse Gtr I|--------------|------------|--------------|------------||--------------|------------|--------------|------------||--------------|------------|--------------|------------||--------------|------------|--------------|------------||-7-7-------8--|-7----------|-7-7-------8--|-7----------||-5-5-------6--|-5----------|-5-5-------6--|-5----------||-Rhy Fig 2 --|
Gtr II|--------------|------------|--------------|------------||--------------|------------|--------------|------------||-6-6-------7--|-6----------|-6-6-------7--|------------||-7-7-------8--|-7----------|-7-7-------8--|------------||-7-7-------8--|-7----------|-7-7-------8--|-6----------||-5-5-------6--|-5----------|-5-5-------6--|-5----------||-Rhy Fig 2A --|-Rhy Fig 2B --|
Verse 1w/Rhy Fig 2B x4|--------------|--------------------|--------------|--------------------||--------------|--------------------|--------------|--------------------||--------------|-------5-(5)b5.5----|--------------|--------------------||--------------|--------------------|--------------|--------5h7tr5------||-7-7-------8--|-7------------------|-7-7-------8--|-7---------------7--||-5-5-------6--|-5------------------|-5-5-------6--|-5------------------|
|--------------|--------------------|--------------|------------||--------------|--------------------|--------------|------------||--------------|-------5-(5)b5.5----|--------------|------------||--------------|--------------------|--------------|------------||-7-7-------8--|-7------------------|-7-7-------8--|-7----------||-5-5-------6--|-5------------------|-5-5-------6--|-5----------|
Gtrs I, II|--------------------|--------------------||--------------------|--------------------||--------------------|--------------------||--------------------|--------------------||-10-9---7---7\------|-10-9---7---7\------||--8-7---5---5\------|--8-7---5---5\------||-Rhy Fig 3 end Rhy Fig 3-|
Rhy Fig 3 Rhy Fig 1 x2
|----------------|----------------------------||----------------|---5-5----------------------||-----------5s14-|---5-5b5.5------------------||----------------|---------------5------------||-7--10--7-------|-----------5h7---7s5-3------||-5---8--5-------|-----------------------3h5--|
Rhy Fig 1 Fill 1 Pre-Verse Rhy Fig 2 + 2A x2
Verse 2w/Rhy Fig 2A x4|--------------|----------------|--------------|-------------------------------||--------------|----------------|--------------|---------------10--------------||--------------|-------5-(5)----|--------------|-------12b14==(12)-(12)rs=17\--||--------------|----------------|--------------|-------------------------------||-7-7-------8--|-7--------------|-7-7-------8--|-7-----------------------------||-5-5-------6--|-5--------------|-5-5-------6--|-5-----------------------------|
|--------------|-------------------|--------------|--------------------||--------------|-------------------|--------------|--------------------||--------------|-------------------|--------------|-------5-(5)s==11/--||--------------|--------5h7tr5-----|--------------|--------------------||-7-7-------8--|-7---------------7-|-7-7-------8--|-7------------------||-5-5-------6--|-5-----------------|-5-5-------6--|-5------------------|
w/Rhy Fig 3|--------------------|--------------------||--------------------|--------------------||--9-8---6---6-------|--9-8---6---6-------||-10-9---7---7-------|-10-9---7---7-------||-10-9---7---7-------|-10-9---7---7-------||--8-7---5---5-------|--8-7---5---5-------||-Rhy Fig 3A end Rhy Fig 3A-|
Rhy Fig 3 + 3A
Guitar Solo|--------------|---------------------------------------||--------------|---------------------------------------||--------------|---------------------------------------||--------------|---------------5h7p5---5-7--(7)s15sx---||-7-7-------8--|-7-3h5p3-3-5h7-------7-----------------||-5-5-------6--|-5-------------------------------------|
|--------------|---------------------------------------||--------------|---------------------------------------||-6-6-------7--|-6-------------------------------------||-7-7-------8--|-7-------------------------------------||-7-7-------8--|-7-------------------------------------||-5-5-------6--|-5-------------------------------------||-Rhy Fig 4 end Rhy Fig 4-|
w/Rhy Fig 4 x3|---------------5-8p5-8p5------------------||-------------5-----------8p5-----8p5------||---------5h7-----------------7p5----------||---7p5-7----------------------------------||------------------------------------------||------------------------------------------|
|-----------5------------------------------------------------||-----------5-8p5--------------------------------------------||-7b9==(7)r-------7b9==(7)r(7)p5-7p5---5-7b9==(7)r-7b9==(7)r-||------------------------------------7-----------------------||------------------------------------------------------------||------------------------------------------------------------|
|---------------5----------------------------|------------------------------||---------------5-8p5------------------------|------------------------------||-----7b9==(7)r-------7b9==(7)r(7)p5-7p5---5-|-------------5----------------||----------------------------------------7---|-7p5-----5h7-----7p5-----5h7--||--------------------------------------------|-----7---------------7--------||--------------------------------------------|------------------------------|
|-----------------------------|-----------------------||-----------------------------|-----------------------||-------------------------5---|-----------------------||-----5-----------5---5h7-----|-7p5-----7---7-(7)-----||-5h7---7s5-3-5h7-------------|-----7-----------------||-----------------------------|-----------------------|
Harmonica break Verse 3 w/Rhy Fig 4 x4 w/Rhy Fig 4 x4
|---------------|-------------||--------------|----------------||o--------------|------------o||--------------|----------------||---------------|-------------||--------------|-------5-(5)----||---------------|-------------||--------------|----------------||o-7-7-------8--|-7----------o||-7-7-------8--|-7--------------||--5-5-------6--|-5-----------||-5-5-------6--|-5--------------|
|--------------|-------------------||---------------|-------------||--------------|-------------------||o--------------|------------o||--------------|-------------------||---------------|-------------||--------------|--------5h7tr5-----||---------------|-------------||-7-7-------8--|-7---------------7-||o-7-7-------8--|-7----------o||-5-5-------6--|-5-----------------||--5-5-------6--|-5-----------|
Gtrs I, II Rhy Fig 3 x2
Outro|--------------|---------------------------||--------------|---5-5---------------------||--------------|---5-5b5.5-----------------||--------------|---------------5-----------||-7--10--7-----|-----------5h7---7s5-3-----||-5---8--5-----|-----------------------5---||-Rhy Fig 5 end Rhy Fig 5-|
w/Rhy Fig 5 x2 Gtr I|----------------|---------------------------||----------------|---5-5---------------------||----------5-----|---5-5b5.5-----------------||----------------|---------------5-----------||-7--10--7-------|-----------5h7---7s5-3-----||-5---8--5-------|-----------------------5---|
|----------------------------------|---------------------------||----------------------------------|---5-5---------------------||----------------------------------|---5-5b5.5-----------------||-----------5h7p5h7p5h7p5h7p5h7p5--|---------------5-----------||-7--10--7-------------------------|-----------5h7---7s5-3-----||-5---8--5-------------------------|-----------------------5---|
Gtrs I, II|--------------|---------------------------|---------------------------||--------------|---5-5---------------------|---5-5---------------------||--------------|---5-5b5.5-----------------|---5-5b5.5-----------------||--------------|---------------5-----------|---------------5-----------||-7--10--7-----|-----------5h7---7s5-3-----|-----------5h7---7s5-3-----||-5---8--5-----|-----------------------5---|-----------------------5---|
|---------------------------|-------------*||---5-5---------------------|-------------*||---5-5b5.5-----------------|-------------*||---------------5-----------|-------------*||-----------5h7---7s5-3-----|-------------*||-----------------------5---|-5-----------*|
Artist: Black Sabbath Album: Black Sabbath Song: Wasp/Behind The Wall All Sleep/Bassically/N.I.B. Wasp Tabbed: Mikedeit Tuning: Standard
|-----------------------------------------------------||-----------------------------------------------------||----------8----8-----------7----7--------------------||----------9----9-----------7----7--------------------||----------9----9-----------7----7--------------------||-----7---------------7-------------------------------|
|-----------------------------------------------------||-----------------------------------------------------||----------8----8-----------7----7--------------------||----------9----9-----------7----7--------------------||----------9----9-----------7----7--------------------||-----7---------------7-------------------------------|
|-----------------------------------------------------||-----------------------------------------------------||----------8----8-----------7----7--------------------||----------9----9-----------7----7--------------------||----------9----9-----------7----7--------------------||-----7---------------7-------------------------------|
|-----------------------------------------------------||-----------------------------------------------------||----------8----8-----------7----7--------------------||----------9----9-----------7----7--------------------||----------9----9-----------7----7--------------------||-----7---------------7-------------------------------|
|-----------------------------------------------------||-----------------------------------------------------||-----------7--7-7p6----------------------------------||--9---9-------------9-7---7--------------------------||--9---9-----------------9----------------------------||--7---7----------------------------------------------|
|-----------------------------------------------------||-----------------------------------------------------||-----------------------------------------------------||--9---9----------7-----------------------------------||--9---9-----7/9-----9/7p5---5------------------------||--7---7-------------------7--------------------------|
|-----------------------------------------------------||-----------------------------------------------------||-----------7--7-7p6----------------------------------||--9---9-------------9-7---7--------------------------||--9---9-----------------9----------------------------||--7---7----------------------------------------------|
|-----------------------------------------------------||-----------------------------------------------------||-----------------------------------------------------||--9---9----------7-----------------------------------||--9---9-----7/9-----9/7p5---5------------------------||--7---7-------------------7--------------------------|
|-----------------------------------------------------||-----------------------------------------------------||----------8----8-----------7----7--------------------||----------9----9-----------7----7--------------------||----------9----9-----------7----7--------------------||-----7---------------7-------------------------------|
|-----------------------------------------------------||-----------------------------------------------------||----------8----8-----------7----7--------------------||----------9----9-----------7----7--------------------||----------9----9-----------7----7--------------------||-----7---------------7-------------------------------|
|-----------------------------------------------------||-----------------------------------------------------||----------8----8-----------7----7--------------------||----------9----9-----------7----7--------------------||----------9----9-----------7----7--------------------||-----7---------------7-------------------------------|
|-----------------------------------------------------||-----------------------------------------------------||----------8----8-----------7----7--------------------||----------9----9-----------7----7--------------------||----------9----9-----------7----7--------------------||-----7---------------7-------------------------------|
|-----------------------------------------------------||-----------------------------------------------------||-----------------------------------------------------||----9------------------------------------------------||----9------------------------------------------------||----7------------------------------------------------|
|------------------------||------------------------||------------------------||----------5h7p5-5h7-----||------------------------||----5--8----------------|
|------------------------||------------------------||------------------------||----------5h7p5---------||----------------5h7-----||----5--8----------------|
|------------------------||------------------------||------------------------||----------5h7p5-5h7-----||------------------------||----5--8----------------|
|------------------------||------------------------||------------------------||----------5h7p5---------||----------------5h7-----||----5--8----------------|
|------------------------||------------------------||------------------------||------------------------||---5--5---5h6p5---------||--------8-------8-5-----|
|------------------------||------------------------||---------------7~~~-----||--7/9-------------------||--7/9-------------------||--5/7-------------------|
|---------------7--------||--------------10b-------||------------------------||--7/9-------------------||--7/9-------------------||--5/7-------------------|
Solo|------------------------------------------------||-------10b-10b-10b-7----------------7/\---------||---------------------9p7------------------------||-------------------------9p7h9------------------||------------------------------------------------||------------------------------------------------|
|------------------------------------------------||----10-12b-12b-12b-10p7-------------------------|that's pretty much it|------------------------9p7---------------------|just keep repeating this|----------------------------9p7-----------------|penatonic|--------------------------------9p7-------------||------------------------------------------------|
|------------------------------------------------||------------------------------------------------||------------------------------------------------||----6h7p6h7p6h7p6h7p6h7p6-----------------------||--------------------------9--9--9--9~~~~~-------||------------------------------------------------|
|--------------------------------------------------||-----------------------7--------------------------||--------------------------------------------------||---------6h7p6h7p6h7------7h9---------------------||--------------------------------------------------||--------------------------------------------------|
|-----------------------------------------------------||-----------------------------------------------------||----------8----8-----------7----7--------------------||----------9----9-----------7----7--------------------||----------9----9-----------7----7--------------------||-----7---------------7-------------------------------|
|-----------------------------------------------------||-----------------------------------------------------||----------8----8-----------7----7--------------------||----------9----9-----------7----7--------------------||----------9----9-----------7----7--------------------||-----7---------------7-------------------------------|
|-----------------------------------------------------||-----------------------------------------------------||----------8----8-----------7----7--------------------||----------9----9-----------7----7--------------------||----------9----9-----------7----7--------------------||-----7---------------7-------------------------------|
|-----------------------------------------------------||-----------------------------------------------------||----------8----8-----------7----7--------------------||----------9----9-----------7----7--------------------||----------9----9-----------7----7--------------------||-----7---------------7-------------------------------|
|------------------------||------------------------||------------------------||----------5h7p5-5h7-----||------------------------||----5--8----------------|
|------------------------||------------------------||------------------------||----------5h7p5---------||----------------5h7-----||----5--8----------------|
|------------------------||------------------------||------------------------||----------5h7p5-5h7-----||------------------------||----5--8----------------|
|------------------------||------------------------||------------------------||----------5h7p5---------||----------------5h7-----||----5--8----------------|
|------------------------||------------------------||------------------------||------------------------||---5--5---5h6p5---------||--------8-------8-5-----|
|------------------------||------------------------||------------------------||------------------------||---5--5---5h6p5---------||--------8-------8-5-----|
|------------------------||------------------------||------------------------||------------------------||---5--5---5h6p5---------||--------8-------8-5-----|
N.I.B. Tabbed: TheMutts Tuning: Standard Gtr I (E A D G B E) -'Toni Iommi - dist electric' Gtr II (E A D G B E) - 'Toni Iommi - dist electric'
Bass Intro Q=173 Slower Q=104 4/4 Gtrs I, II|-------------||--------||-------------||--------||-------------||--------||-------------||--------||-------------||--------||-------------||--------|
Pre-Verse Q=104 $ $$ Gtrs I, II|--------------------|---------------------------|--------------------||o-------------------|-----------10b12==(10)r-8--|--------------------||--------------------|---------------------------|--------------------||--9-9-7-9---12-11---|-9-9-7-9-------------------|-9-9-7-9---12-11----||o-7-7-5-7---10--9---|-7-7-5-7-------------------|-7-7-5-7---10--9----||--------------------|---------------------------|--------------------| |-Rhy Fig 1
Verse|--------------------||-------------------|-----------7-----7\-------||--------------------||-------------------|-----------8b8.5-8b8.5\---||--------------------||-------------------|--------------------------||-9-9-7-9------7tr9--||-9-9-7-9---12-11---|-9-9-7-9------------------||-7-7-5-7---/7-------||-7-7-5-7---10--9---|-7-7-5-7------------------||--------------------||-------------------|--------------------------| end Rhy Fig 1-||-Rhy Fig 2
|-------------------|--------------------|-------------------||-------------------|--------------------|-------------------||-------------------|--------------------|-------------------||-9-9-7-9---12-11---|-9-9-7-9------7tr9--|-9-9-7-9---12-11---||-7-7-5-7---10--9---|-7-7-5-7---/7-------|-7-7-5-7---10--9---||-------------------|--------------------|-------------------|
|-----------7-----7\-------|-------------------|--------------||-----------8b8.5-8b8.5\---|-------------------|--------------||--------------------------|-------------------|--------------||-9-9-7-9------------------|-9-9-7-9---12-11---|-9-9-7-9------||-7-7-5-7------------------|-7-7-5-7---10--9---|-7-7-5-7------||--------------------------|-------------------|--------------| end Rhy Fig 2-|
Interlude|-------------------|-------------------|-------------------||-------------------|-------------------|-------------------||-------------------|-------------------|-------------------||------5-7-7p5------|------5-7-7p5------|------5-7-7p5------||-5h7----------7-7--|-5h7----------7-7--|-5h7----------7-7--||-------------------|-------------------|-------------------|
|----------7-------------7-------------7----(7)/----||-10b12==(10)r--10b12==(10)r--10b12==(10)r---------o||---------------------------------------------------||---------------------------------------------------||--------------------------------------------------o||---------------------------------------------------|
Bridge|---------------|--------------||---------------|--------------||---------------|--------------||--9----(9)---9-|-7----(7)---7-||--7----(7)---7-|-5----(5)---5-||---------------|--------------|
|--------------|--------------|--------------||--------------|--------------|--------------||--------------|--------------|--------------||-5----(5)---5-|-4----(4)---4-|-9----(9)---9-||-3----(3)---3-|-2----(2)---2-|-7----(7)---7-||--------------|--------------|--------------|
|--------------|--------------|--------------|--------------||--------------|--------------|--------------|--------------||--------------|--------------|--------------|--------------||-7----(7)---7-|-5----(5)---5-|-4----(4)---4-|-5----(5)---5-||-5----(5)---5-|-3----(3)---3-|-2----(2)---2-|-3----(3)---3-||--------------|--------------|--------------|--------------|
|--------------|--------------|----------|------------||--------------|--------------|----------|------------||--------------|--------------|----------|------------||-4----(4)---4-|-5----(5)---5-|-4--------|-(4)--------||-2----(2)---2-|-3----(3)---3-|-2--------|-(2)--------||--------------|--------------|----------|------------|
Guitar Solo|-------------------------|---------------|-------------------------------||-------------------------|---------------|-------------------------------||-------------------------|---4-4--4s7-7--|-7h9-9---9b11==(9)r-9b11==(9)r-||-5-4h5p4---5-4h5p4---4s5-|-7-------------|-------------------------------||---------7---------7-----|---------------|-------------------------------||-------------------------|---------------|-------------------------------|
Gtr I|--------------------------|----------------------------------------------------||--------------------------|------------------8---10p=8--------------8-------10-||-9b11==(9)r==(9)-7h9p7--7-|-/9-9-/9-9-(9)--------------9-----------------------||--------------------------|----------------------------------------------------||--------------------------|----------------------------------------------------||--------------------------|----------------------------------------------------|
Gtr II|--------------------------|----------------------------------------------------||--------------------------|--------------------------------10b12==(10)r(10)p=8-||-9b11==(9)r==(9)-7h9p7--7-|-/9-9-/9-9--9--9-/9-9--9-/9-9-9---------------------||--------------------------|----------------------------------------------------||--------------------------|----------------------------------------------------||--------------------------|----------------------------------------------------|
|---------------------------------------------------||-10b12==(10)r(10)p8-10----10b12==(10)r(10)p8-10-8--||------------------------9--------------------------||---------------------------------------------------||---------------------------------------------------||---------------------------------------------------|
|---------------------------------------------------||---------10----------8-10-10b12==(10)r(10)p8-10----||------------------9-----------------------------9--||---------------------------------------------------||---------------------------------------------------||---------------------------------------------------|
|----------------------------------------------------||-10b12==(10)r(10)p8-10-8-10b12==(10)r--10b12==(10)--||----------------------------------------------------||----------------------------------------------------||----------------------------------------------------||----------------------------------------------------|
|----------------------------------------------------||-10b12==(10)r(10)p8-10-8-10b12==(10)r--10b12==(10)--||----------------------------------------------------||----------------------------------------------------||----------------------------------------------------||----------------------------------------------------|
|--------------------------------|----------------------||-(10)r(10)-10p8h10-8--(8)s15----|----------------------||--------------------------------|-------------------4--||--------------------------------|---5-4h5p4---4h5h7----||--------------------------------|-----------7----------||--------------------------------|----------------------|
|--------------------------------|----------------------||-(10)r(10)-10p8----8---8s====12-|----------------------||-----------------9--------------|-------------------4--||--------------------------------|---5-4h5p4---4h5h7----||--------------------------------|-----------7----------||--------------------------------|----------------------|
Gtrs I, II|---------------|------------------------------||---------------|------------------------------||-4--4s7-7s9-9--|-9s12-12--12h14-14b16==(14)r--||---------------|------------------------------||---------------|------------------------------||---------------|------------------------------|
|-----12-12-------------------------||-12--------15b17==(15)r(15)-15-12--||-----------------------------------||-----------------------------------||-----------------------------------||-----------------------------------|
Gtr I|-15p12----15p12----15p12----15p12-15b17==(15)r--||-------12-------12-------12---------------------||------------------------------------------------||------------------------------------------------||------------------------------------------------||------------------------------------------------|
Gtr II|-15p12----15p12----15p12----15p12-15b17==(15)r--||-------12-------12-------12---------------------||------------------------------------------------||------------------------------------------------||------------------------------------------------||------------------------------------------------|
|-15-12h15p12----12-----------------------------12--||-------------15----15p12---------------------------||-------------------------14b15========(14)r--------||---------------------------------------------------||---------------------------------------------------||---------------------------------------------------|
|-15-12h15p12----12--------------------------12-----||-------------15----15p12---------------12------15--||-------------------------14b15==(14)r--------------||---------------------------------------------------||---------------------------------------------------||---------------------------------------------------|
|---------------12-------------------------------------------------||-15b17==(15)r-----15p12----12----15-------------------------------||------------------------15-------------14b16==(14)r-14b16==(14)r--||------------------------------------------------------------------||------------------------------------------------------------------||------------------------------------------------------------------|
|---------------12----------12-------------------------------------||-15b17==(15)r-----15p12-------15p===12----------------------------||------------------------15-------------14b16==(14)r---------12----||------------------------------------------------------------------||------------------------------------------------------------------||------------------------------------------------------------------|
|-----------------------------------------------------------------||-----------------------------------------------------------------||-14----12h14p12-----------------12-14b16==(14)r(14)p12-----------||------------------------14---------------------------------------||-----------------------------------------------------------------||-----------------------------------------------------------------|
|-----------------------------------------------------------------||-----------------------------------------------------------------||-------12-------14b16==(14)-14r------------12----------(12)------||-12h14------------------------------------------------------14---||-----------------------------------------------------------------||-----------------------------------------------------------------|
Interlude && Gtrs I, II Rhy Fig 1 Verse Rhy Fig 2
Outro - Guitar Solo|-------------------|-------------------|-------------------||-------------------|-------------------|-------------------||-------------------|-------------------|-------------------||------5-7-7p5------|------5-7-7p5------|------5-7-7p5------||-5h7----------7-7--|-5h7----------7-7--|-5h7----------7-7--||-------------------|-------------------|-------------------|
|----------7-------------7------(7)/---|-------------------------||-10b12==(10)r--10b12==(10)r-----------|-------------------------||--------------------------------------|-------------------------||--------------------------------------|-5-4h5p4---5-4h5p4---4s5-||--------------------------------------|---------7---------7-----||--------------------------------------|-------------------------|
|---------------|--------------------------------|--------------------------||---------------|--------------------------------|--------------------------||---4-4--4s7-7--|-7h9-9----9b11==(9)r-9b11==(9)r-|-9b11==(9)r==(9)-7h9p7--7-||-7-------------|--------------------------------|--------------------------||---------------|--------------------------------|--------------------------||---------------|--------------------------------|--------------------------|
Gtr I|-----------------------------10b12==(10)r-----||----------------------------------------------||-/9-9-9-/9-9-9-/9-9-9-/9-9-9------------------||----------------------------------------------||----------------------------------------------||----------------------------------------------|
Gtr II|-----------------------------10b12==(10)r(10)-||----------------------------------------------||-/9-9-9-/9-9-9-/9-9-9-/9-9-9------------------||----------------------------------------------||----------------------------------------------||----------------------------------------------|
|--------------------------------------------------------------||-10b12==(10)r--8---------10p===8-----8-10-10b12==(10)r(10)p=8-||----------------------------------9---------------------------||--------------------------------------------------------------||--------------------------------------------------------------||--------------------------------------------------------------|
|--------------10----------------------------------------------||-10b12==(10)r----10b12==(10)r(10)p8-10-------------8-------10-||----------------------------------------9---------------------||--------------------------------------------------------------||--------------------------------------------------------------||--------------------------------------------------------------|
|--------------------------------------------------------||---------10----------8-10-10b12==(10)r--10b12==(10)-----||------------------9-------------------------------------||--------------------------------------------------------||--------------------------------------------------------||--------------------------------------------------------|
|--------------------------------------------------------||-10b12==(10)r(10)p8-10----10b12==(10)r--10b12==(10)r----||------------------------9-------------------------------||--------------------------------------------------------||--------------------------------------------------------||--------------------------------------------------------|
|----------------------------------------------------------------12-||--------(10)r(10)-10p==8h=10----------8----------------------12----||------------------------------------------------14b16==(14)r-------||-------------------------------------------------------------------||-------------------------------------------------------------------||-------------------------------------------------------------------|
|---------------------------------------------12-----------------12-||------------------------------------------12-----------------12----||-10b12==(10)------10r(10)----14b16==(14)r-------14b16==(14)r-------||-------------------------------------------------------------------||-------------------------------------------------------------------||-------------------------------------------------------------------|
|---------------------15b17==(15)r-15-15p12--------------------||-15b17==(15)r--15-12-----------------------15b17=====(15)r----||--------------------------------------------------------------||--------------------------------------------------------------||--------------------------------------------------------------||--------------------------------------------------------------|
|---------------------15b17==(15)r----15----12h====15p======12-||-15b17==(15)r--15-12------------------------------------------||--------------------------------------------------------------||--------------------------------------------------------------||--------------------------------------------------------------||--------------------------------------------------------------|
|-12----------------------------------------------------------------------||-------15------------12------12----15b17==(15)r-15----15b17==(15)r----15-||--------------------------14---------------------------------------------||-------------------------------------------------------------------------||-------------------------------------------------------------------------||-------------------------------------------------------------------------|
|----12-----------------------12-----------------12--------------------12-||-15----15-12--------------12----15-15b17==(15)r----15---------12---------||-------------14b16==(14)r------------------------------------------14----||-------------------------------------------------------------------------||-------------------------------------------------------------------------||-------------------------------------------------------------------------|
|----------------------------------------------------------------------------------||--------12h=14p12-----------------------------------------------------------------||------------------14-------14b16==(14)r=(14)-12----14-------12---------14------12-||----------------------------------------------------------------------------------||----------------------------------------------------------------------------------||----------------------------------------------------------------------------------|
|-------------------------------------------------------------------------------12-||-15b17==15r-------12h14p12---------------12---------------------------------12----||---------------------------14b16==(14)r------14-12-14p12----12-14b16==(14)r-------||---------------------------------------------------------14-----------------------||----------------------------------------------------------------------------------||----------------------------------------------------------------------------------|
|-------------------------------------------------------------------------||---------------------------------------------------------------------12--||-14b16==(14)r--14b16==(14)r----14b16==(14)r========(14)------------------||-------------------------------------------------------------------------||-------------------------------------------------------------------------||-------------------------------------------------------------------------|
|-------------------------------------------------------------------------||-15b17==(15)r----------15---12---------------------------------------12--||---------------------------------------14pb16r(14)p=12--14b16==(14)r-----||-------------------------------------------------------------------------||-------------------------------------------------------------------------||-------------------------------------------------------------------------|
Gtrs I, II|-15p12----15p12----15p12----15p12----15p12----15p||-------12-------12-------12-------12-------12----||-------------------------------------------------||-------------------------------------------------||-------------------------------------------------||-------------------------------------------------|
|-12----15p12----15p12----15p12----15p12----15p12-||----12-------12-------12-------12-------12-------||-------------------------------------------------||-------------------------------------------------||-------------------------------------------------||-------------------------------------------------|
|----15p12----15p12----15p12----15p12----15p12--||-12-------12-------12-------12-------12--------||-----------------------------------------------||-----------------------------------------------||-----------------------------------------------||-----------------------------------------------|
Gtr I|-15b17=(15)r-15----12h15p12----12---------------------------------------------------15b17=(15)r--------15----:|----------------------------15----15p12--------------------12-15b17=(15)r===(15)p12--------------------------:|----------------------------------------14b16=(14)r----------------------------------------------------------:|-------------------------------------------------------------------------------------------------------------:|-------------------------------------------------------------------------------------------------------------:|-------------------------------------------------------------------------------------------------------------:
Gtr I|-15b17=(15)r-15p12----------12------------------------------------------------------15b17=(15)r-15-12h15p=12-:|----------------------15----------------------------15b17=(15)------(15)r-15-12------------------------------:|----------------------------------14p=========12-------------------------------------------------------------:|-------------------------------------------------------------------------------------------------------------:|-------------------------------------------------------------------------------------------------------------:|-------------------------------------------------------------------------------------------------------------:
|-12h15p12------------------------------------------------------------------------------------:|----------15----14p===========12-------------------------------------------------------------:|-----------------------------------14-12-14b16==(14)r----------------------------------------:|---------------------------------------------------------------------------------------------:|---------------------------------------------------------------------------------------------:|---------------------------------------------------------------------------------------------:
|-------12------------------------------------------------------------------------------------:|-15-------14p12-----------------------15--------------14p12----------------------------------:|-------------------14-14b16==(14)r--------------------------14b16==(14)r-14b17==(14)r=(14)p==:|---------------------------------------------------------------------------------------------:|---------------------------------------------------------------------------------------------:|---------------------------------------------------------------------------------------------:
|-------------:-----------------:|-------------:-----------------:|-------------:-----------------:|-------------:-9---------------:|-------------:-7---------------:|-------------:-----------------:
|-------------:-----------------:|-------------:-----------------:|-12----------:-----------------:|-------------:-9---------12h14-:|-------------:-7---------------:|-------------:-----------------:
|--------------------------------------------------:------------:-------------*||--------------------------------------------------:------------:-------------*||--------------------------------------------------:------------:-------------*||-(9)----------------------------------------------:-(9)--------:----9\-------*||-(7)----------------------------------------------:-(7)--------:----7\-------*||--------------------------------------------------:------------:-------------*|
|--------------------------------------------------:------------:-------------*||--------------------------------------------------:------------:-------------*||-12--14-14pb16r(14)-12-14-12-12-------------------:------------:-------------*||--------------------------------14-12h14-12-------:------------:----9\-------*||--------------------------------------------14-12s:=11---------:----7\-------*||--------------------------------------------------:------------:-------------*|
Artist: Black Sabbath Album: Black Sabbath Song: Wicked World Tabbed: red9535 Tuning: Standard
|----------------------------------------------------||-12-----------12------------------------------------||----14-12~-------14-12~-----------------------------||-----------14-----------14--14--12--14--------------||----------------------------14--12--14--------------||----------------------------12--10--12--------------|
|---------------------------------------------------------------||---------------------------------------------------------------||--------------5-7^-^7p5-7p5------------------------------------||-------7--5h7---------------7--7------5-7-5---5h7--------------||-------7-----------------------7--5h7-------7------------------||-------5-----------------------5-------------------------------|
|----------------------------------------------------------||----------------------------------------------------------||----------------------------------------------------------||-7--10--12----7--10--12----7-10--12----14\----------------||-7--10--12----7--10--12----7-10--12----14\----------------||-5---8--10----5---8--10----5--8--10----12\----------------|
|---------------------------------------------------------------||---------------------------------------------------------------||---------------------------------------------------------------||---------------------------------------------------------------||-5h7-5---------5h7-5---------5h7-5---------5h7-5---------------||-------7-6-5-3-------7-6-5-3-------7-6-5-3-------7-6-5-3--0----|
|----------------------------------------------------------------------||----------------------------------------------------------------------||-------------------------------------------------12~~-----------------||--------5-------------------5-------------/14-14----14-14-14-14-12----||--5h7-7----7-7-7-7-5--5h7-7----7-7-7-7-5------------------------------||----------------------------------------------------------------------|
|-------------------------------------||-------------------------------------||-------------------------------------||-------------------------------------||-7h9-7----------9h11-9---------------||-------9-8-7-5---------11-10-9-7---0-|
|---0-----0-----0-----0-----0------0-----0-----0-----0-----0-----0-----0---||-----0-----0-----0-----0-----0------0-----0-----0-----0-----0-----0-----0-||--------------------------------------------------------------------------||-------------------------9-----10-----9-----------------------------------||-12----12----12----12-----------------------12----10----------------------||--------------------------------------------------------12----10----12----|
|---0-----0-----0-----0-----0-----0------0-----0-----0-----||-----0-----0-----0-----0-----0-----0------0-----0-----0---||----------------------------------------------------------||-------------------------------9-----10-----9-------------||-------------------------12-----------------------12------||-12----12----12----12-------------------------------------|
|---0-----0-----0-----0-----0-----0-----0-----0-----0-----0-----0---||-----0-----0-----0-----0-----0-----0-----0-----0-----0-----0-----0-||-------------------------------------------------------------------||-------------------------------------------------12----12----12----||-10----------------------------------------------------------------||-------12----10----12----12----12----12----12----------------------|repeat
Solo:|-------------12-------------------------||----------------15p12-------------------||----12-12-14^---------14^p12------------||-14--------------------------14-14\-----||----------------------------------------||----------------------------------------|
|-------------------------------------------------------------||-------------------------------------------------------------||-------------------------------------------------------------||----12-12-14p12-------12-12-14p12-------12-12-14p12----12-14-||-14-------------14-14-------------14-14-------------14-------||-------------------------------------------------------------|
|-------------------------------------------------||--------------12-15p12-15^-15-12-----------------||----12-12-14^--------------------14^p12-14-12~~--||-14----------------------------------------------||-------------------------------------------------||-------------------------------------------------|
|----------------------------------------------------------||----------------------------------------------------------||----------------------------------------------------------||----12-12-14p12-------12-12-14p12-------12-12-14p12-------||-14-------------14-14-------------14-14-------------14----||----------------------------------------------------------|
|------------------------12---15-15p12------------------12----||----------------------12--15----------15-15p12-------12--15^-||-12-12-14p12----12-14^-------------------------12-14^--------||-------------14----------------------------------------------||-------------------------------------------------------------||-------------------------------------------------------------|
|-12------------------12h15-12h15p12h15p12--12-------------||----15p12--------------------------------12---15p12-------||----------14^p12-14^--------------------------------14^---||----------------------------------------------------------||----------------------------------------------------------||----------------------------------------------------------|
|------------------------------------------------||----12-12---------------------------------------||-14-------16^p14-16p14-12-14-16-16^p14-14-12\---||------------------------------------------------||------------------------------------------------||------------------------------------------------|
Artist: Black Sabbath Album: Black Sabbath Song: A Bit Of Finger/Sleeping Village/Warning A Bit Of Finger/Sleeping Village Tuning: Standard Tabbed: TheMutts
|--------------------------|-----------------------0--||--------------------------|--------------------0-----||-----------------0--------|-----------------0--------||--------4-----4-----4-----|--------4-----4-----------||-----7-----7-----------7--|-----7-----7--------------||--0-----------------------|--0-----------------------|
Warning Tuning: Standard Tabbed: Electricace
|--------------------|----------------13^--|--13-10---------------------| |-8/10---------------|-13^-^-^-----10------|--------13-10---------------| |---------12^--12-10-|---------------------|--------------12^p10--10----| |--------------------|---------------------|----------------------------| |--------------------|---------------------|-------------------------12-| |--------------------|---------------------|----------------------------|
|-----------------------------------|-----------------------------------| |----------------10-----------------|--------10--------------------10---| |-------10-------10------12^--10----|--------10-----------10-------10---| |----------12-12-----------------12-|-12-12------------------12-12------| |-10h12-----------------------------|-----------10h12-------------------| |-----------------------------------|-----------------------------------|
|-------------------------------------------------------| |-------------------------------------------------------| |-------------------------------------------------------| |-------------------------------------------------------| |-3--3-3-3-3-3--4--5--5-5-5---5-5-5-5-5-5-5-------------| |-1--1-1-1-1-1--2--3--3-3-3---3-3-3-3-3-3-3-------------|
|--------10------------|-------10------------------------| |-----10----13^-^-^-^--|-----10--13-10--------------10---| |--13------------------|---13---------12^p10-12-10~~10---| |----------------------|---------------------------------| |----------------------|---------------------------------| |----------------------|---------------------------------|
|-----------------------------------|------------------------------| |----------------10-----------------|--------10--------------------| |-------10-------10------12^--10----|--------10-----------10-------| |----------12-12-----------------12-|-12-12------------------12----| |-10h12-----------------------------|-----------10h12--------------| |-----------------------------------|------------------------------|
|-------------------------------------------| |-------------------------------------------| |-------------------------------------------| |-------------------------------------------| |-3--3-3-3-3-3-3-3-3-4-5-5-5-5-5-5-5-5-5-5--| |-1--1-1-1-1-1-1-1-1-2-3-3-3-3-3-3-3-3-3-3--|
Ok, now theres a pause, then tony comes in again and plays this. It will take a while to get the rythm going smooth and play it just like he plays it but once u do, well it feels good...
Solo: #2 (1:36) |-----10--------------------------------|------10--------------------------| |---10----13-10-------------------------|----10--10-13-10------------------| |-12-----------12^p10-12p10----10h12-10-|--12------------12^p10-12--10h12--| |---------------------------12----------|-------------------------12-------| |---------------------------------------|----------------------------------| |---------------------------------------|----------------------------------|
|-----------------------|-------13-15^-15^-------| |-------------13-15--13-|-13-15------------15p13-| |-10-----12/14-----14---|------------------------| |-----------------------|------------------------| |-----------------------|------------------------| |-----------------------|------------------------|
|--------10--------------------------|--------------------------------| |---10-13--13------------------------|--------------------------------| |-13-----------13-12p10-12^p10-12-10-|----------10--------------------| |------------------------------------|----10-12-----12p10-------------| |------------------------------------|---------------------12-10-8-10-| |------------------------------------|--------------------------------|
|---------------------------|--------------10------------| |---------------------------|------------10---13p10------| |-----------10-12-12^p10----|----------13----------12p10-| |-------/12--------------12-|---12-----------------------| |-8-------------------------|----------------------------| |---------------------------|----------------------------|
|-------------------------------|------10------------13^---| |--------------------10---------|----10--13^-~~---10-------| |--------------------10---------|-12^----------------------| |---------10---10h12------10/20-|--------------------------| |-10h12-------------------------|--------------------------| |-------------------------------|--------------------------|
|-13-10--------------------------|-------------------| |-------13-10--------------------|----------10-------| |-------------12-12^p10-12-10----|----------10-12-10-| |--------------------------------|----10h12----------| |-----------------------------12-|-------------------| |--------------------------------|-------------------|
|------------10-------|-----------------------------------| |-----10-----10-------|--------10----10----10-10-10----10-| |-12^--------10-------|--------10-12-10-12-10-12-10-12-10-| |---------------------|--10h12----------------------------| |---------------------|-----------------------------------| |---------------------|-----------------------------------|
|----------10-----------13--|-15^-15-------------------------------| |-----10---10-----13-15-----|--------15-13--------13-15-13---------| |-12^------10---------------|----------------13h14--------1312-10--| |---------------------------|--------------------------------------| |---------------------------|--------------------------------------| |---------------------------|--------------------------------------|
|--------10---------10------------------|-----------------------------| |-----------10-13^-----13---------------|-----------------------------| |-12-12^------------------12^p10-12--10-|---------10------------------| |----------------------------------12---|---10-12----12p10------------| |---------------------------------------|-------------------1210-8h10-| |---------------------------------------|-----------------------------|
|-----------------------------------|------------10-------------| |-----------------------------------|----------10---13p10-------| |--------------------10-12-12^p10---|------12^------------12p10-| |---------------10/12------------12-|-12------------------------| |-8---------------------------------|---------------------------| |-----------------------------------|---------------------------|
|-----------------------------/x--|--------10------/x-------13^-| |---------------------10/--x/-----|-----10----13^/-------10-----| |---------------------10/---------|-12^-------------------------| |---------10----10h12-------------|-----------------------------| |-10h12---------------------------|-----------------------------| |---------------------------------|-----------------------------|
End Solo: #2: Back to Fig A: |-13-10-----------------------|--------------------------| |-------13-10-----------------|--------------------------| |------------12^p10-12--10----|--------------------------| |--------------------------12-|--------------------------| |-----------------------------|--------------------------| |---------------
Tap to rate this tab
 
# A B C D E F G H I J K L M N O P Q R S T U V W X Y Z