Black Sabbath - Lord Of This World tab

Lord Of This World
Black Sabbath - Master Of Reality (1971)

Tune down 1 1/2 steps


|----------------------------------||----------------------------------||----------------------------------||----------------------------------||-7--7-7-5---4---5-/7\-------------||-0--0-0--------------/7---6---7---|
|----------------------------------------------------------||----------------------------------------------------------||-9--9-9---------------------------------------------------||-9--9-9-7---6---7--9--9---8---9---7-----------------------||-7--7-7-5---4---5--7--9---8---9---5-----------------------||----------------------7---6---7---------------------------|
|-------------------------------------------------------------------||-------------------------------------------------------------------||--9--9--7/9----7-/9--9---7-/9--7--9--7/9--9--7/9----7/9------7--8--||--9--9--7/9----7-/9--9---7-/9--5--9--7/9--9--7/9----7/9---9--7--8--||--7--7--5/7----5-/7--7---5-/7-----7--5/7--7--5/7----5/7---9--5--6--||----------------------------------------------------------7--------|
|------------------------------||------------------------------||------------------------------||-9----8----7-------7^---------||-9----8----7------------------||-7----6----5------------------|
|------------------------------------------------------------||------------------------------------------------------------||------------9^---------------------------9^-----------------||----------------9h11--9--\7-----------------9h11--9--\7-----||--7-8-9p7-------------------7-----9p7-------------------7---||----------9---------------------------9---------------------|
solo: (bend 1 up) r|----------------------------------------------------------||----------------------------------------------------------||-----------4-4/7-7h9-9----(7)-9-9-9-9-9-9-9-9-9-^9--7h9-9-||------5-h7------------------------------------------------||--5h7-----------------------------------------------------||----------------------------------------------------------|
bend r|--------------------------------------------------------------||--------------------------------------------------------------||-7---------------------------4-4/7-7h9-9--9-9-9-9-9^9---7h9-9-||---9\7-5---4-5-4h5p4-4-5-5/7----------------------------------||--------------------------------------------------------------||--------------------------------------------------------------|
|-----------------------------------------------12---------||--------------------------------12--15-12-15^-----15-12---||-7/9-9-9-9/12-12-12-12/14-14-14---------------------------||----------------------------------------------------------||----------------------------------------------------------||----------------------------------------------------------|
|---------------12----12--12-14-15-12-14-15-12-14-15^-15^-15^-12-------||------------------12-------------------------------------------12-15--||-15-14-12--14^--------------------------------------------------------||----------------------------------------------------------------------||----------------------------------------------------------------------||----------------------------------------------------------------------|
|-12---------------------12--------12-------------------||----15-12------------------12-15^----15-12-------------||----------15-14-12--14^--------------------14-12-14----||-------------------------------------------------------||-------------------------------------------------------||-------------------------------------------------------|
|-12----12--15--15--15--15--15---------|end 1st solo:|----15-----18^-18^-18^-18^-18^--------||--------------------------------------||--------------------------------------||--------------------------------------||--------------------------------------|
|--------------------------------------------------------------||-----------------------------------------------------------5--||-----------------------------------------------7~----------7^-||-9-9-9-9-9----x---x---7-7-7-7-7--------9-9-9-9-----7-7-7-7----||-9-9-9-9-9--x-x-x-x---7-7-7-7-7--------9-9-9-9-----7-7-7-7----||-7-7-7-7-7--x---x-----5-5-5-5-5--0-----7-7-7-7-----5-5-5-5----|
sorry, i'm not going to do the 2nd solo. If you can get the first one, just play the little variations. If you can get the first one, you should be able to ad lib thje 2nd one pretty good.
|----------------------------------------------------------||----------------------------------------------------------||-9-----9------5-5--5-5---7-7--7-7-----12-11---------------||-9-----9------5-5--5-5---7-7--7-7-----12-11---------------||-7-----7------3-3--3-3---5-5--5-5-----10--9---------------||----------------------------------------------------------|
- - - Sabbath rules!
Tap to rate this tab
 
# A B C D E F G H I J K L M N O P Q R S T U V W X Y Z