Bon Jovi - Dead Or Alive tab

  dead or alive tab by jon bon jovi

   12 string guitar

   intro

|-------0---| |-------0----------0----||-----3-----| |-----3------------3----||---2-------|x 7 |---2--------------2----||-0---------| |-0-------0--------0----||-----------| |-----------------------||-----------| |-----------------------|
|----------------------------------------------------------||------10--------8--------10--------8--------10--------8---||-10------10---9---9---10----10---9---9---10----10---9---9-||----0-------0-------0----------0-------0----------0-------||----------------------------------------------------------||----------------------------------------------------------|
|-------0-------0---||-----6-------6-----||---5-------5-------||-0-------0---------||-------------------||-------------------|
chorus
|------13---------12---------10--------8----||-------------------------------------------||---14---14----12---12----10---10----9---9--||-0----------0----------0----------0--------||-------------------------------------------||-------------------------------------------|
|
|-----5--------3--------1---||----------------0----------||---5---5----4-------4\-----|x 2|-0--------0----------------||---------------------------||---------------------------|
|------------------0--------||---------------------3-----||---------------------------||---------0-3b--0-------0---||-0-0--3b-------------------||---------------------------|
|---------------------0-------||------------------------3----||-----------------------------||------------0-3b--0-------0--||-0-0-0--3b-------------------||-----------------------------|
|---------------------0----------||-----------------------3---3----||--------------------------------||------------0-3b--0------0------||-0-0-0--3b----------------------||--------------------------------|
|---------------------||---------------------||------------2--3-----||------------3--0-----||-0-0-0--3b-----------||---------------------|
|-2---2---2h3p2--0--0h2p0h3------3-3------3-------3-||-3---3---3------3--3------------3-3------3---------||-2---2---2------2--2---------0--0-0------0-----0---||-0---0---0------0--0---------2------0------0h2-----||-----------------------------3------2--------------||------------------------------------3--------------|
|----3-3----3-------3------1-2-0h2-------0h2------||----3-3----3--------------1-3-----3-3------------||-0--0-0----0-----0--------2-2---------2----------||-2------0----0h2-----tap--3-0--------------------||-3------2-----------------3----------------------||--------3-----------------1----------------------|
|-2---2---2h3p2--0--0h2p0h3------3-3------3-------3-||-3---3---3------3--3------------3-3------3---------||-2---2---2------2--2---------0--0-0------0-----0---||-0---0---0------0--0---------2------0------0h2-----||-----------------------------3------2--------------||------------------------------------3--------------|
|----3-3----3-------3------1-2-0h2-------0h2------||----3-3----3--------------1-3-----3-3------------||-0--0-0----0-----0--------2-2---------2----------||-2------0----0h2-----tap--3-0--------------------||-3------2-----------------3----------------------||--------3-----------------1----------------------|
|----3-3----3-------3---1-2-0h2-------0h2------||----3-3----3-----------1-3-----3-3------------||-0--0-0----0-----0-----2-2---------2----------||-2------0----0h2-------3-0--------------------||-3------2--------------3----------------------||--------3--------------1----------------------|
|----3-3----3-------3--------2-0h2-------0h2-||----3-3----3----------------3-----3-3-------||-0--0-0----0-----0------2-2-2---------2-----||-2------0----0h2------2-0-3-0---------------||-3------2-------------3---------------------||--------3-----------------------------------|
|----3-3----3-------3--------2-0h2-------0h2-||----3-3----3----------------3-----3-3-------||-0--0-0----0-----0------2-2-2---------2-----||-2------0----0h2------2-0-3-0---------------||-3------2-------------3---------------------||--------3-----------------------------------|
|------13---------12---------10--------8----||-------------------------------------------||---14---14----12---12----10---10----9---9--||-0----------0----------0----------0--------||-------------------------------------------||-------------------------------------------|
|
|-----5--------3--------1---||----------------0----------||---5---5----4-------4\-----|x 2|-0--------0----------------||---------------------------||---------------------------|
|------------------0--------||---------------------3-----||---------------------------||---------0-3b--0-------0---||-0-0--3b-------------------||---------------------------|
|---------------------0-------||------------------------3----||-----------------------------||------------0-3b--0-------0--||-0-0-0--3b-------------------||-----------------------------|
|---------------------0----------||-----------------------3---3----||--------------------------------||------------0-3b--0------0------||-0-0-0--3b----------------------||--------------------------------|
|---------------------||---------------------||------------2--3-----||------------3--0-----||-0-0-0--3b-----------||---------------------|
|-2---2---2h3p2--0--0h2p0h3------3-3------3-------3-||-3---3---3------3--3------------3-3------3---------||-2---2---2------2--2---------0--0-0------0-----0---||-0---0---0------0--0---------2------0------0h2-----||-----------------------------3------2--------------||------------------------------------3--------------|
|----3-3----3-------3------1-2-0h2-------0h2------||----3-3----3--------------1-3-----3-3------------||-0--0-0----0-----0--------2-2---------2----------||-2------0----0h2-----tap--3-0--------------------||-3------2-----------------3----------------------||--------3-----------------1----------------------|
|-2---2---2h3p2--0--0h2p0h3------3-3------3-------3-||-3---3---3------3--3------------3-3------3---------||-2---2---2------2--2---------0--0-0------0-----0---||-0---0---0------0--0---------2------0------0h2-----||-----------------------------3------2--------------||------------------------------------3--------------|
|----3-3----3-------3------1-2-0h2-------0h2------||----3-3----3--------------1-3-----3-3------------||-0--0-0----0-----0--------2-2---------2----------||-2------0----0h2-----tap--3-0--------------------||-3------2-----------------3----------------------||--------3-----------------1----------------------|
|----3-3----3-------3---1-2-0h2-------0h2------||----3-3----3-----------1-3-----3-3------------||-0--0-0----0-----0-----2-2---------2----------||-2------0----0h2-------3-0--------------------||-3------2--------------3----------------------||--------3--------------1----------------------|
|----3-3----3-------3--------2-0h2-------0h2-||----3-3----3----------------3-----3-3-------||-0--0-0----0-----0------2-2-2---------2-----||-2------0----0h2------2-0-3-0---------------||-3------2-------------3---------------------||--------3-----------------------------------|
|----3-3----3-------3--------2-0h2-------0h2-||----3-3----3----------------3-----3-3-------||-0--0-0----0-----0------2-2-2---------2-----||-2------0----0h2------2-0-3-0---------------||-3------2-------------3---------------------||--------3-----------------------------------|
steve,,, pompom020366@hotmail.com
Tap to rate this tab
 
# A B C D E F G H I J K L M N O P Q R S T U V W X Y Z