Beyond The Knowing tab with lyrics by Buckethead for guitar @ Guitaretab

Buckethead – Beyond The Knowing tab

Title: Beyond The Knowing
Artist: Buckethead

Legend
L - tied note
x - dead note
h - hammer on/pull off
b - bend
s - slide
~ - vibrato
g - ghost note
> - accentuated note
t - trill
M - palm mute
. - staccato
P - popping (bass)
S - slapping (bass)
+ - tapping
W - wide vibrato
< - fade in
w - whammy bar
= - tremolo picking
v - brush up
^ - brush down
V - pick stroke up
n - pick stroke down

1st part  
                                            
||----------------0-----------------0----|||----------0-----------------0----------|||----8--------8--------8--------8-------|||-------6-----------------6-------------|||-4>----------------4>------------------|||---------------------------------------|
-----------------0-----------------0----|-----------0-----------------0----------|-----8--------8--------8--------8-------|--------6-----------------6-------------|--0>------------------------------------|--------------------7>------------------|
-----------------0-----------------0----|-----------0-----------------0----------|-----8--------8--------8--------8-------|--------6-----------------6-------------|--4>----------------4>------------------|----------------------------------------|
-----------------0-----------------0----|-----------0-----------------0----------|-----8--------8--------8--------8-------|--------6-----------------6-------------|--0>------------------------------------|--------------------7>------------------|
-----------------0-----------------0----|-----------0-----------------0----------|-----8--------8--------8--------8-------|--------6-----------------6-------------|--4>----------------4>------------------|----------------------------------------|
-----------------0-----------------0----|-----------0-----------------0----------|-----8--------8--------8--------8-------|--------6-----------------6-------------|--0>------------------------------------|--------------------7>------------------|
-----------------0-----------------0----|-----------0-----------------0----------|-----8--------8--------8--------8-------|--------6-----------------6-------------|--4>----------------4>------------------|----------------------------------------|
-----------------0-----------------0----|-----------0-----------------0----------|-----8--------8--------8--------8-------|--------6-----------------6-------------|--0>------------------------------------|--------------------7>------------------|
-----------------0-----------------0----|-----------0-----------------0----------|-----9--------9--------8--------8-------|--------11----------------9-------------|--0>----------------0>------------------|----------------------------------------|
-----------------0-----------------0----|-----------0-----------------0----------|-----6--------6--------8--------8-------|--------7-----------------9-------------|--0>----------------0>------------------|----------------------------------------|
-----------------0-----------------0----|-----------0-----------------0----------|-----9--------9--------8--------8-------|--------11----------------9-------------|--0>----------------0>------------------|----------------------------------------|
-----------------0-----------------0----|-----------0-----------------0----------|-----6--------6--------8--------8-------|--------7-----------------9-------------|--0>----------------0>------------------|----------------------------------------|
-----------------0-----------------0----|-----------0-----------------0----------|-----11-------11-------9--------9-------|--------13----------------11------------|--0>----------------0>------------------|----------------------------------------|
-----------------0-----------------0----|-----------0-----------------0----------|-----8--------8--------9--------9-------|--------9-----------------11------------|--0>----------------0>------------------|----------------------------------------|
-----------------0-----------------0----|-----------0-----------------0----------|-----9--------9--------8--------8-------|--------11----------------9-------------|--0>----------------0>------------------|----------------------------------------|
-----------------0-----------------0----|-----------0-----------------0----------|-----6--------6--------4--------4-------|--------7-----------------6-------------|--0>----------------0>------------------|----------------------------------------|
-----------------0-----------------0----|-----------0-----------------0----------|-----4--------4--------4--------4-------|--------2-----------------2-------------|--4>----------------4>------------------|----------------------------------------|
-----------------0-----------------0----|-----------0-----------------2----------|-----4--------4--------4--------4-------|--------1-----------------2-------------|--2>----------------0>------------------|----------------------------------------|
-----------------0-----------------0----|-----------0-----------------0----------|-----4--------4--------4--------4-------|--------2-----------------2-------------|--4>----------------4>------------------|----------------------------------------|
-----------------0-----------------0----|-----------0-----------------2----------|-----4--------4--------4--------4-------|--------1-----------------2-------------|--2>----------------0>------------------|----------------------------------------|
-----------------0-----------------0----|-----------0-----------------0----------|-----4--------4--------4--------4-------|--------2-----------------2-------------|--4>----------------4>------------------|----------------------------------------|
-----------------0-----------------0----|-----------0-----------------2----------|-----4--------4--------4--------4-------|--------1-----------------2-------------|--2>----------------0>------------------|----------------------------------------|
-----------------0-----------------0----|-----------2-----------------4----------|-----4--------4--------4--------4-------|--------2-----------------2-------------|--0>----------------0>------------------|----------------------------------------|
-----------------0-----------------0----|-----------4-----------------2----------|-----4--------4--------4--------4-------|--------2-----------------2-------------|--0>----------------0>------------------|----------------------------------------|
^ -----------------0--0-------------------|||-----------2--------2-------------------|||-----4--------4-----4-------------------|||--------2-----------2-------------------|||--0>----------------0-------------------|||----------------------------------------|||
[Repeat this part 1x]^ 2nd part
----------------0-----------------0----|----------0-----------------0----------|----2--------2--------2--------2-------|-------6-----------------6-------------|-4>----------------4>------------------|---------------------------------------|
-----------------0-----------------0----|-----------0-----------------0----------|-----1--------1--------1--------1-------|--------4-----------------4-------------|--2>----------------0>------------------|----------------------------------------|
-----------------0-----------------0----|-----------0-----------------0----------|-----2--------2--------2--------2-------|--------6-----------------6-------------|--4>----------------4>------------------|----------------------------------------|
-----------------0-----------------0----|-----------0-----------------0----------|-----1--------1--------1--------1-------|--------4-----------------4-------------|--2>----------------0>------------------|----------------------------------------|
-----------------0-----------------0----|-----------0-----------------0----------|-----2--------2--------2--------2-------|--------6-----------------6-------------|--4>----------------4>------------------|----------------------------------------|
-----------------0-----------------0----|-----------0-----------------0----------|-----1--------1--------1--------1-------|--------4-----------------4-------------|--2>----------------2>------------------|----------------------------------------|
-----------------0-----------------0----|-----------0-----------------0----------|-----1--------1--------1--------1-------|--------4-----------------4-------------|--0>----------------0>------------------|----------------------------------------|
^ -----------------0-----------------0-----0----||-----------0-----------------0-----------2----||-----1--------1--------1--------1--------4----||--------4-----------------4--------------2----||--0>----------------0>-------------------0----||----------------------------------------------||
The Fast part:
----------------0-----------------0----|----------0-----------------0----------|----8--------8--------8--------8-------|-------6-----------------6-------------|-4>----------------4>------------------|---------------------------------------|
-----------------0-----------------0----|-----------0-----------------0----------|-----8--------8--------8--------8-------|--------6-----------------6-------------|--0>------------------------------------|--------------------7>------------------|
-----------------0-----------------0----|-----------0-----------------0----------|-----8--------8--------8--------8-------|--------6-----------------6-------------|--4>----------------4>------------------|----------------------------------------|
-----------------0-----------------0----|-----------0-----------------0----------|-----8--------8--------8--------8-------|--------6-----------------6-------------|--0>------------------------------------|--------------------7>------------------|
-----------------0-----------------0----|-----------0-----------------0----------|-----8--------8--------8--------8-------|--------6-----------------6-------------|--4>----------------4>------------------|----------------------------------------|
-----------------0-----------------0----|-----------0-----------------0----------|-----8--------8--------8--------8-------|--------6-----------------6-------------|--0>------------------------------------|--------------------7>------------------|
-----------------0-----------------0----|-----------0-----------------0----------|-----8--------8--------8--------8-------|--------6-----------------6-------------|--4>----------------4>------------------|----------------------------------------|
-----------------0-----------------0----|-----------0-----------------0----------|-----8--------8--------8--------8-------|--------6-----------------6-------------|--0>------------------------------------|--------------------7>------------------|
-----------------0-----------------0----|-----------0-----------------0----------|-----9--------9--------8--------8-------|--------11----------------9-------------|--0>----------------0>------------------|----------------------------------------|
-----------------0-----------------0----|-----------0-----------------0----------|-----6--------6--------8--------8-------|--------7-----------------9-------------|--0>----------------0>------------------|----------------------------------------|
-----------------0-----------------0----|-----------0-----------------0----------|-----9--------9--------8--------8-------|--------11----------------9-------------|--0>----------------0>------------------|----------------------------------------|
-----------------0-----------------0----|-----------0-----------------0----------|-----6--------6--------8--------8-------|--------7-----------------9-------------|--0>----------------0>------------------|----------------------------------------|
-----------------0-----------------0----|-----------0-----------------0----------|-----11-------11-------9--------9-------|--------13----------------11------------|--0>----------------0>------------------|----------------------------------------|
-----------------0-----------------0----|-----------0-----------------0----------|-----8--------8--------9--------9-------|--------9-----------------11------------|--0>----------------0>------------------|----------------------------------------|
-----------------0-----------------0----|-----------0-----------------0----------|-----9--------9--------8--------8-------|--------11----------------9-------------|--0>----------------0>------------------|----------------------------------------|
-----------------0-----------------0----|-----------0-----------------0----------|-----6--------6--------4--------4-------|--------7-----------------6-------------|--0>----------------0>------------------|----------------------------------------|
-----------------0-----------------0----|-----------0-----------------0----------|-----4--------4--------4--------4-------|--------2-----------------2-------------|--4>----------------4>------------------|----------------------------------------|
-----------------0-----------------0----|-----------0-----------------2----------|-----4--------4--------4--------4-------|--------1-----------------2-------------|--2>----------------0>------------------|----------------------------------------|
-----------------0-----------------0----|-----------0-----------------0----------|-----4--------4--------4--------4-------|--------2-----------------2-------------|--4>----------------4>------------------|----------------------------------------|
-----------------0-----------------0----|-----------0-----------------2----------|-----4--------4--------4--------4-------|--------1-----------------2-------------|--2>----------------0>------------------|----------------------------------------|
-----------------0-----------------0----|-----------0-----------------0----------|-----4--------4--------4--------4-------|--------2-----------------2-------------|--4>----------------4>------------------|----------------------------------------|
-----------------0-----------------0----|-----------0-----------------2----------|-----4--------4--------4--------4-------|--------1-----------------2-------------|--2>----------------0>------------------|----------------------------------------|
-----------------0-----------------0----|-----------2-----------------4----------|-----4--------4--------4--------4-------|--------2-----------------2-------------|--0>----------------0>------------------|----------------------------------------|
-----------------0-----------------0----|-----------4-----------------2----------|-----4--------4--------4--------4-------|--------2-----------------2-------------|--0>----------------0>------------------|----------------------------------------|
^ -----------------0--0------------------|||-----------2--------2------------------|||-----4--------4-----4------------------|||--------2-----------2------------------|||--0>----------------0------------------|||---------------------------------------|||
2nd part of fast part
-----------------0-----------------0----|-----------0-----------------0----------|-----2--------2--------2--------2-------|--------6-----------------6-------------|--4>----------------4>------------------|----------------------------------------|
-----------------0-----------------0----|-----------0-----------------0----------|-----2--------2--------1--------1-------|--------6-----------------4-------------|--4>----------------2>------------------|----------------------------------------|
-----------------0-----------------0----|-----------0-----------------0----------|-----1--------1--------1--------1-------|--------4-----------------4-------------|--0>----------------0>------------------|----------------------------------------|
-----------------0-----------------0----|-----------0-----------------0----------|-----1--------1--------1--------1-------|--------4-----------------4-------------|--0>----------------2>------------------|----------------------------------------|
-----------------0-----------------0----|-----------0-----------------0----------|-----2--------2--------2--------2-------|--------6-----------------6-------------|--4>----------------4>------------------|----------------------------------------|
-----------------0-----------------0----|-----------0-----------------0----------|-----2--------2--------1--------1-------|--------6-----------------4-------------|--4>----------------2>------------------|----------------------------------------|
-----------------0-----------------0----|-----------0-----------------0----------|-----1--------1--------1--------1-------|--------4-----------------4-------------|--0>----------------0>------------------|----------------------------------------|
-----------------0-----------------0----|-----------0-----------------0----------|-----1--------1--------1--------1-------|--------4-----------------4-------------|--0>----------------2>------------------|----------------------------------------|
-----------------0-----------------0----|-----------0-----------------0----------|-----2--------2--------2--------2-------|--------6-----------------6-------------|--4>----------------4>------------------|----------------------------------------|
-----------------0-----------------0----|-----------0-----------------0----------|-----2--------2--------1--------1-------|--------6-----------------4-------------|--4>----------------2>------------------|----------------------------------------|
-----------------0-----------------0----|-----------0-----------------0----------|-----1--------1--------1--------1-------|--------4-----------------4-------------|--0>----------------0>------------------|----------------------------------------|
-----------------0-----------------0----|-----------0-----------------0----------|-----1--------1--------1--------1-------|--------4-----------------4-------------|--0>----------------2>------------------|----------------------------------------|
-----------------0-----------------0----|-----------0-----------------0----------|-----2--------2--------2--------2-------|--------6-----------------6-------------|--4>----------------4>------------------|----------------------------------------|
-----------------0-----------------0----|-----------0-----------------0----------|-----2--------2--------1--------1-------|--------6-----------------4-------------|--4>----------------2>------------------|----------------------------------------|
-----------------0-----------------0----|-----------0-----------------0----------|-----1--------1--------1--------1-------|--------4-----------------4-------------|--0>----------------0>------------------|----------------------------------------|
-----------------0-----------------0----|-----------0-----------------0----------|-----1--------1--------1--------1-------|--------4-----------------4-------------|--0>----------------2>------------------|----------------------------------------|
-----------------0-----------------0----|-----------0-----------------0----------|-----9--------9--------8--------8-------|--------11----------------9-------------|--0>----------------0>------------------|----------------------------------------|
-----------------0-----------------0----|-----------0-----------------0----------|-----6--------6--------8--------8-------|--------7-----------------9-------------|--0>----------------0>------------------|----------------------------------------|
-----------------0-----------------0----|-----------0-----------------0----------|-----9--------9--------8--------8-------|--------11----------------9-------------|--0>----------------0>------------------|----------------------------------------|
-----------------0-----------------0----|-----------0-----------------0----------|-----6--------6--------8--------8-------|--------7-----------------9-------------|--0>----------------0>------------------|----------------------------------------|
-----------------0-----------------0----|-----------0-----------------0----------|-----11-------11-------9--------9-------|--------13----------------11------------|--0>----------------0>------------------|----------------------------------------|
-----------------0-----------------0----|-----------0-----------------0----------|-----8--------8--------9--------9-------|--------9-----------------11------------|--0>----------------0>------------------|----------------------------------------|
-----------------0-----------------0----|-----------0-----------------0----------|-----9--------9--------8--------8-------|--------11----------------9-------------|--0>----------------0>------------------|----------------------------------------|
-----------------0-----------------0----|-----------0-----------------0----------|-----6--------6--------4--------4-------|--------7-----------------6-------------|--0>----------------0>------------------|----------------------------------------|
-----------------0-----------------0----|-----------0-----------------0----------|-----4--------4--------4--------4-------|--------2-----------------2-------------|--4>----------------4>------------------|----------------------------------------|
-----------------0-----------------0----|-----------0-----------------2----------|-----4--------4--------4--------4-------|--------1-----------------2-------------|--2>----------------0>------------------|----------------------------------------|
-----------------0-----------------0----|-----------0-----------------0----------|-----4--------4--------4--------4-------|--------2-----------------2-------------|--4>----------------4>------------------|----------------------------------------|
-----------------0-----------------0----|-----------0-----------------2----------|-----4--------4--------4--------4-------|--------1-----------------2-------------|--2>----------------0>------------------|----------------------------------------|
-----------------0-----------------0----|-----------0-----------------0----------|-----4--------4--------4--------4-------|--------2-----------------2-------------|--4>----------------4>------------------|----------------------------------------|
-----------------0-----------------0----|-----------0-----------------2----------|-----4--------4--------4--------4-------|--------1-----------------2-------------|--2>----------------0>------------------|----------------------------------------|
-----------------0-----------------0----|-----------2-----------------4----------|-----4--------4--------4--------4-------|--------2-----------------2-------------|--0>----------------0>------------------|----------------------------------------|
-----------------0-----------------0----|-----------4-----------------2----------|-----4--------4--------4--------4-------|--------2-----------------2-------------|--0>----------------0>------------------|----------------------------------------|
^-----------------0--0------------------|||-----------2--------2------------------|||-----4--------4-----4------------------|||--------2-----------2------------------|||--0>----------------0------------------|||---------------------------------------|||
Please rate this tab:
x1.0