Bullet For My Valentine - Deliver Us From Evil tab

Tuning: D G C F A D 

Guitar 1:

Intro:

|-----------------------------------------------------------------------------||-----------------------------------------------------------------------------||-9------9------9------9------9----9----10-----10-----10-----10-----10---9----||-10-----10-----10-----10-----10---10---10-----10-----10-----10-----10---10---||----0-0----0-0----0-0----0-0----0----0----0-0----0-0----0-0----0-0----0----0-||-----------------------------------------------------------------------------|
* * * * * * * * * * * * * * * * * * * * |----------------------------------------------------| |----------------------------------------------------| |-7-----7-----7-----7-----5---7---9------9------9----| x2|-9-----9-----9-----9-----7---9---10-----10-----10---| |---0-0---0-0---0-0---0-0---0---0----0-0----0-0----0-| |----------------------------------------------------|
* * * * * * * * * * * * * * *play in the end the intro the first time: |--------------| |--------------| |-10--9---7--5-| |-10--10--9--7-| |--------------| |--------------|
and the second time: |-----| |-----| |-7---| |-9---| |-----| |-----|
chorus:
|--------------------------------------------------------------------------------||--------------------------------------------------------------------------------||------------------------------------------------9---9-9-9-9-9-9-9-9-9-9-9-9-9-9-||-3--3-3--3-3--3-3-3--3--5--5-5-5--5-5--5-5-5-5--x---x-x-x-x-x-x-x-x-x-x-x-x-x-x-||-3--3-3--3-3--3-3-3--3--5--5-5-5--5-5--5-5-5-5--7---7-7-7-7-7-7-7-7-7-7-7-7-7-7-||-1--1-1--1-1--1-1-1--1--3--3-3-3--3-3--3-3-3-3----------------------------------|
|-------------------------------------------------------------------------------------||-------------------------------------------------------------------------------------||-7-7-7-7-7-7-7-7-7/9-9-9-9-9-9-9-9---------------------------------------------------||-x-x-x-x-x-x-x-x-x/x-x-x-x-x-x-x-x--3--3-3-3--3-3--3-3-3-3-3--5--5-5-5--5--5-5-5-5-5-||-5-5-5-5-5-5-5-5-5/7-7-7-7-7-7-7-7--3--3-3-3--3-3--3-3-3-3-3--5--5-5-5--5--5-5-5-5-5-||------------------------------------1--1-1-1--1-1--1-1-1-1-1--3--3-3-3--3--3-3-3-3-3-|
pre-verse:
|-----------------------------------------------------------------------------||-----------------------------------------------------------------------------||-9------9------9------9------9----9----10-----10-----10-----10-----10---9----||-10-----10-----10-----10-----10---10---10-----10-----10-----10-----10---10---||----0-0----0-0----0-0----0-0----0----0----0-0----0-0----0-0----0-0----0----0-||-----------------------------------------------------------------------------|
* * * * * * * * * * * * * * * * * * * * |--------------------------------------------------------------| |--------------------------------------------------------------| |-7-----7-----7-----7-----5---7---9------9------9----10-9--7-5-| |-9-----9-----9-----9-----7---9---10-----10-----10---10-10-9-7-| |---0-0---0-0---0-0---0-0---0---0----0-0----0-0----0-----------| |--------------------------------------------------------------| * * * * * * * * * * * * * * * verse:
|-----------------------------------------------------------------------------||-----------------------------------------------------------------------------||-9------9------9------9------9----9----10-----10-----10-----10-----10---9----||-10-----10-----10-----10-----10---10---10-----10-----10-----10-----10---10---||----0-0----0-0----0-0----0-0----0----0----0-0----0-0----0-0----0-0----0----0-||-----------------------------------------------------------------------------|
* * * * * * * * * * * * * * * * * * * * |--------------------------------------------------------------| |--------------------------------------------------------------| |-7-----7-----7-----7-----5---7---9------9------9----10-9--7-5-| x4|-9-----9-----9-----9-----7---9---10-----10-----10---10-10-9-7-| |---0-0---0-0---0-0---0-0---0---0----0-0----0-0----0-----------| |--------------------------------------------------------------| * * * * * * * * * * * * * * *
pre-chorus:
|--------------------------------------------------------------------||--------------------------------------------------------------------||-------------------------------------8---10-----8-----10-----8---10-||-3----5----7----9--10--3----5----7-7---7----7-7---7-7----7-7---7----||-3----5----7----9--10--3----5---------------------------------------||-1----3----5----7--8---1----3---------------------------------------|
* * * * * * * * * *|------------------------------------------------------| |------------------------------------------------------| |------5--4-0-------5--4-0-----------------------------| |-3--3---------5--5---------7--------------9--9-10--10-| |-3--3---------5--5---------7--7-7-7-7-7-7-9--9-10--10-| |-1--1---------3--3---------5--5-5-5-5-5-5-7--7-8---8--|
* * * * * * |-----------------------------------------------------------| |-----------------------------------------------------------| |------5--4-0-------5--4-0----------------------------------| |-3--3---------5--5---------7------7-------10--10-10--10-10-| |-3--3---------5--5---------7--7-7-7-7-7-7-10--10-10--10-10-| |-1--1---------3--3---------5--5-5-5-5-5-5-8---8--8---8--8--|
chorus verse (play the pattern only 2 times, not 4 times) pre-chorus chorus bridge:
|-----------------------------------------------------------------||-----------------------------------------------------------------||-----------------------------------------------------------------||-10-10-10-10-10-10-10-10-10-10-10-10-10-10-10-10-9-9-9-9-9-9-9-9-||-0--0--0--0--0--0--0--0--0--0--0--0--0--0--0--0--0-0-0-0-0-0-0-0-||-----------------------------------------------------------------|
* * * * * * * * * * * * * * * * * * * * * * * *|-----------------------------------------------------------------||-----------------------------------------------------------------||-----------------------------------------------------------------||-10-10-10-10-10-10-10-10-9-9-9-9-9-9-9-9-10-10-10-10-10-10-10-10-||-0--0--0--0--0--0--0--0--8-8-8-8-8-8-8-8-8--8--8--8--8--8--8--8--|
* * * * * * * * * * * * * * * * * * * * * * * * |-------------------------------------------------||-------------------------------------------------||-------------------------------------------------| |-9--9--9--9--9--9--9--9--10-10-10-10-10-10-10-10-||-10-10-10-10-10-10-10-10-10-10-10-10-10-10-10-10-|
* * * * * * * * * * * * * * * *|---------------------------------------------------------||---------------------------------------------------------||---------------------------------------------------------||-9-9-9-9-9-9-9-9-10-10-10-10-10-10-10-10-9-9-9-9-9-9-9-9-||-0-0-0-0-0-0-0-0-0--0--0--0--0--0--0--0--0-0-0-0-0-0-0-0-||---------------------------------------------------------|
* * * * * * * * * * * * * * * * * * * * * * * *|-----------------------------------------------------------------||-----------------------------------------------------------------||-----------------------------------------------------------------||-10-10-10-10-10-10-10-10-9-9-9-9-9-9-9-9-10-10-10-10-10-10-10-10-||-0--0--0--0--0--0--0--0--8-8-8-8-8-8-8-8-8--8--8--8--8--8--8--8--|
* * * * * * * * * * * * * * * * * * * * * * * *|-------------------------------------------------||-------------------------------------------------||-------------------------------------------------| |-9--9--9--9--9--9--9--9--10-10-10-10-10-10-10-10-| x2|-10-10-10-10-10-10-10-10-10-10-10-10-10-10-10-10-||-------------------------------------------------|
* * * * * * * * * * * * * * * *|---------------------------------------------------------||---------------------------------------------------------||---------------------------------------------------------||-9-9-9-9-9-9-9-9-10-10-10-10-10-10-10-10-9-9-9-9-9-9-9-9-||-0-0-0-0-0-0-0-0-0--0--0--0--0--0--0--0--0-0-0-0-0-0-0-0-||---------------------------------------------------------|
* * * * * * * * * * * * * * * * * * * * * * * *|---------------------------------------------------------||---------------------------------pause-until-------------||------------------------------------solo-----------------||-10-10-10-10-10-10-10-10---------------------------------||-0--0--0--0--0--0--0--0----------------------------------||---------------------------------------------------------|
solo:
|--------------------------------------||--------------------------------------||--------------------9------10---------||-12b(14)-10~---9h10---9h10----9h10-7~-||--------------------------------------||--------------------------------------|
|------------------------------------------------------------||------------------------------------------------------------||----------------------------------17-14----14---------------||-7-10-7-10-7-10-12-10-12-14-12-14-------17----17-14-17b(19)-||------------------------------------------------------------||------------------------------------------------------------|
|------------------------------------------------------------------||------------------------------------------------------------------||-16b(17)r16-14-------------16b(17)r16-14---------16b(17)r16-14----||---------------17-17b(19)~---------------17-15*~---------------17-||------------------------------------------------------------------||------------------------------------------------------------------|
|-12----------------12----------------15-12----------12-15-12----------||----13----------13----13----------13-------13----13----------13----13-||-------14----14----------14----14-------------14----------------14----||----------14----------------14----------------------------------------||----------------------------------------------------------------------||----------------------------------------------------------------------|
|-19-15----------15-19-15----------19b(20)r19-17----17~-||-------17----17----------17----17---------------20-----||----------16----------------16-------------------------||-------------------------------------------------------||-------------------------------------------------------||-------------------------------------------------------|
pre-chorus then:
|---------------------------------------||---------------------------------------||---------------------------------------||-3------5------7------7b(8)-7-8b(10)~--||-3------5------7-----------------------||-1------3------5-----------------------|
chorus (variation):
|--------------------------------------------------------------------------------||--------------------------------------------------------------------------------||------------------------------------------------9---9-9-9-9-9-9-9-9-9-9-9-9-9-9-||-3--3-3--3-3--3-3-3--3--5--5-5-5--5-5--5-5-5-5--x---x-x-x-x-x-x-x-x-x-x-x-x-x-x-||-3--3-3--3-3--3-3-3--3--5--5-5-5--5-5--5-5-5-5--7---7-7-7-7-7-7-7-7-7-7-7-7-7-7-||-1--1-1--1-1--1-1-1--1--3--3-3-3--3-3--3-3-3-3----------------------------------|
|-----------------------------------||-----------------------------------||-7-7-7-7-7-7-7-7-7/9-9-9-9-9-9-9-9-||-x-x-x-x-x-x-x-x-x-x-x-x-x-x-x-x-x-| play that a few times and |-5-5-5-5-5-5-5-5-5/7-7-7-7-7-7-7-7-| then slowly fade out|-----------------------------------|
the guitar 2 part is coming soon (i'm not sure bout several parts yet but i'll work as good and fast as i can) i hope, it ROCKS!
Tap to rate this tab
 
# A B C D E F G H I J K L M N O P Q R S T U V W X Y Z