Op 19 - Koyunbaba - Part Ii - Mosso tab with lyrics by Carlo Domeniconi - Easy chords and tabs for guitar

Carlo Domeniconi – Op 19 - Koyunbaba - Part Ii - Mosso tab

Koyunbaba, Part II - Carlo Domeniconi (1985)

Date: Mon, 11 Jun 2001 12:33:38 -0700 (PDT)
From: Armin Eslami 
Subject: Part II

key + info after the tab
last updated 2nd February 2005

Koyunbaba
Carlo Domeniconi (born 1947)

                  Part  II

     Mosso
 
| | | E ||--9--------0--------11-------11-------| C# ||-----11-------9--------0--------0-----| G# ||*-------0--------0--------0--------0--| C# ||*-------------------------------------| G# ||--------------------------------------| C# ||--------------------------------------| 1 3 1 3
|--7--------0--------9--------9--------|| |-----9--------7--------0--------0-----|| |--------0--------0--------0--------0-*|| |-------------------------------------*|| |--------------------------------------|| |--------------------------------------|| 1 3 1 3
(&) ||--5--------4--------2--------0--------| ||-----7--------5--------3--------2-----| ||*-------0--------0--------0--------0--| ||*-------------------------------------| ||--------------------------------------| ||--------------------------------------| 1 3 1 2 1 2 1
3x % % |--0--------0--------0--------0--------||--------------------|| |-----3--------2--------0--------0-----||--------------------|| |--------5--------3--------1--------0-*||*-3--1-p0--5--3-p0-*|| |-------------------------------------*||*------------------*|| |--------------------------------------||--------------------|| |--------------------------------------||--------------------|| 1 3 1 2 2 3 131 3 131
% % % % % % % Fine|--------------------------------------------------------------------<19>----|||--------------------------------------------------------------------<19>----|||--7--5--0--8--7--0--10-8--0--12-10-0--13-12-0--15-13-0--17-15-0-<19>--------|||----------------------------------------------------------------------------|||----------------------------------------------------------------------------|||----------------------------------------------------------------------------|| 3
|---------------------------|---------------------------------------| |--7-h8--10-----------------|------10-------10-------10-------10----| |---------------------------|--<7>------<7>------<7>------<7>-------| |------------------------<7>|--------<7>------<7>------<7>------<7>-| |---------------------------|---------------------------------------| |---------------------------|---------------------------------------| 1 2 4 4
|---------------------------------------| |------10-------10-------10-------10----| |--<7>------<7>------<7>------<7>-------| |--------<7>------<7>------<7>------<7>-| |---------------------------------------| |---------------------------------------|
|---------------------------------------|-----------0-----------0--| |------8--------8--------8--------8-----|-----7-----------7--------| |--<7>------<7>------<7>------<7>-------|--------0-----------0-----| |--------<7>------<7>------<7>------<7>-|--0-----------0-----------| |---------------------------------------|--------------------------| |---------------------------------------|--------------------------| 2 1
|-----------0-----------0--|-----------0-----------0--| |-----7-----------5--------|-----5-----------10-------| |--------0-----------0-----|--------0-----------0-----| |--0-----------0-----------|--0-----------0-----------| |--------------------------|--------------------------| |--------------------------|--------------------------| 1 1
|-----------0-----------0-----------0-----------0--| |-----7-----------5-----------5-----------3--------| |--------0-----------0-----------0-----------0-----| |--0-----------0-----------0-----------0-----------| |--------------------------------------------------| |--------------------------------------------------| 1 1 1
|-----------0-----------0--|-----------0-----------0--| |-----3-----------2--------|-----2-----------3--------| |--------0-----------0-----|--------0-----------0-----| |--0-----------0-----------|--0-----------0-----------| |--------------------------|--------------------------| |--------------------------|--------------------------| 1 1
|-----------0-----------0-----------0-----------0--| |-----3-----------0-----------0-----------0--------| |--------0-----------0-----------0-----------0-----| |--0-----------0-----------0-----------0-----------| |--------------------------------------------------| |--------------------------------------------------|
|---------------------------|---------------------------------------| |--7--8--10-----------------|------10-------10-------10-------10----| |---------------------------|--<7>------<7>------<7>------<7>-------| |------------------------<7>|--------<7>------<7>------<7>------<7>-| |---------------------------|---------------------------------------| |---------------------------|---------------------------------------|
|---------------------------------------| |------10-------10-------10-------10----| |--<7>------<7>------<7>------<7>-------| |--------<7>------<7>------<7>-------0--| |---------------------------------------| |---------------------------------------| 4 1 1
|-----------7-----------7-----------7-----------7--| |-----10----------10----------10----------10-------| |--0-----------0-----------0-----------0-----------| |--------0-----------0-----------0-----------0-----| |--------------------------------------------------| |--------------------------------------------------| 4 1
|-----------8-----------8-----------7-----------7--| |-----11----------11----------10----------10-------| |--0-----------0-----------0-----------0-----------| |--------0-----------0-----------0-----------0-----| |--------------------------------------------------| |--------------------------------------------------| 4 1 4 1
|-----------7-----------5-----------5-----------5--| |-----10----------8-----------8-----------8--------| |--0-----------0-----------0-----------0-----------| |--------0-----------0-----------0-----------0-----| |--------------------------------------------------| |--------------------------------------------------| 4 1
|-----------5-----------4-----------4-----------4--| |-----8-----------7-----------7-----------7--------| |--0-----------0-----------0-----------0-----------| |--------0-----------0-----------0-----------0-----| |--------------------------------------------------| |--------------------------------------------------| 4 1
|--0-----------0-----------0-----------0-----------| |-----7-----------7-----------7-----------5--------| |--------0-----------0-----------0-----------0-----| |-----------0-----------0-----------0-----------0--| |--------------------------------------------------| |--------------------------------------------------| 4 1
|--0-----------0-----------0-----------0-----------| |-----10----------7-----------7-----------7--------| |--------0-----------0-----------0-----------0-----| |-----------0-----------0-----------0-----------0--| |--------------------------------------------------| |--------------------------------------------------| 1 1
|--9--------0--------11-------11-------| |-----11-------9--------0--------0-----| |--------0--------0--------0--------0--| |--------------------------------------| |--------------------------------------| |--------------------------------------| 1 3 1 3
|--12-------0--------14-------14-------| |-----14-------12-------0--------0-----| |--------0--------0--------0--------0--| |--------------------------------------| |--------------------------------------| |--------------------------------------| 1 3 1 3
|--7--------0--------9--------9--------| |-----9--------7--------0--------0-----| |--------0--------0--------0--------0--| |--------------------------------------| |--------------------------------------| |--------------------------------------| 1 3 1 3
d.s. al fine |--14-------0--------16-------16-------|| |-----15-------14-------0--------0-----|| |--------0--------0--------0--------0--|| |--------------------------------------|| |--------------------------------------|| |--------------------------------------|| 1 2 1 3
******************************************** KEY (&) sign (segno) % mordent (play note, then the scale note above, then the original note) h hammer on p pull off <7> natural harmonic left-hand fingering (below the tab) - from the sheet music 1 1st (fore) finger 2 2nd (index) finger 3 3rd (ring) finger 4 4th (little) finger (pinkie)
||-- --|| ||-- --||
||*- -*|| repeat this section ||*- -*|| ||-- --||
******************************************************************************
Please rate this tab:
x1.0