Children Of Bodom - Cry Of The Nihilist tab

Artist: Children of Bodom
Song: Cry of the Nihilist
Album: Relentless Reckless Forever
Tabbed by drawnacrol
Tuning: D standard ( D G C F A D )

|--------5--8--7--8--5-----------5--8/10p7----------||-----6-----------------6-----6-------------8-------||--5-----------------------5-------------------7----||---------------------------------------------------||---------------------------------------------------||---------------------------------------------------|
|--------5--8--7--8--5-----------5--8/10p7----------||-----6-----------------6-----6-------------8-------||--5-----------------------5-------------------7----||---------------------------------------------------||---------------------------------------------------||---------------------------------------------------|
|---------8--12\10p7----------------12--15\10p7--------||-----10--------------8---------13---------------8-----||--9---------------------7--12----------------------7--||------------------------------------------------------||------------------------------------------------------||------------------------------------------------------|
|---------8--12\7p3----------------12--15\10p7---------||-----10-------------5---------13---------------8------||--9--------------------4--12----------------------7---||------------------------------------------------------||------------------------------------------------------||------------------------------------------------------|
Repeat Previous Section Again
|--8p5-----5p2-----10p7-----7p4-------||-------6-------3--------8-------5----||-----------------------------------4-||-------------------------------------||-------------------------------------||-------------------------------------|
|----------------------------------------------------------------------||----------------------------------------------------------------------||--14--14----------12--12----------------------------------------------||----------12--12----------13--13----------12--12----------------------||----------------------------------15--15----------15--15--------------||----------------------------------------------------------------------|
|----------------------------------------------------------------------||----------------------------------------------------------------------||----------------------------------------------------------------------||--7--7--------5--5----------------------------7--\---/--\---/--\------||--------5--5--------6--6--------5--5----------7---\-/----\-/----\-----||--------------------------8--8--------8--8----5----v------v------\----|
|-----------------------------------------------||-----------------------------------------------||-----------------------------------------------||-----------------------------------------------||---------------------------5-------------------||--6--5--3--0-------------------6--5---0--------|
Guitar Solo:
|---------------------------------------------------------15\----------||--\-/17--\-/16--\-/15----------------17\----15------------------------||---v------v------v-------15--14--12-------------15--14----------------||----------------------------------------------------------------------||----------------------------------------------------------------------||----------------------------------------------------------------------|
|--19p15--18p15--17p15--14h15p14p12-------------------------------------||-----------------------------------15--14--12~~~--14h15p14p12----------||---------------------------------------------------------------15--14--||-----------------------------------------------------------------------||-----------------------------------------------------------------------||-----------------------------------------------------------------------|
|--------------14------15-----14-----12--15t17p15p12h15p12--------------------||----------15----------------------------------------------h15t17p15p12h15p12-||--12~~~~----------12------12-----12------------------------------------------||-----------------------------------------------------------------------------||-----------------------------------------------------------------------------||-----------------------------------------------------------------------------|
|------------------------------------------------------------------------||------------------------------------------------------------------------||--h14t16p14p12---------------12h14t19p14p12h14p12h14t19p14p12h14--------||----------------14t17/19p14---------------------------------------------||------------------------------------------------------------------------||------------------------------------------------------------------------|
|---------------------------------------------------------------------||------------------------Hard--To--Hear-------------------------------||--15--14--12---------(----12----------)------------------------------||--------------14\----(-12----14p12h14-)--14--16--14--16--17--16--17--||-----------------\---------------------------------------------------||------------------\--------------------------------------------------|
|----------------------------------------------------------------------||--------------14--15--14-\--------------------------------------------||--14--16--17--------------\-Dive-Bomb---------------------------------||---------------------------\------------------------------------------||----------------------------------------------------------------------||----------------------------------------------------------------------|
Standard tuning ( E A D G B E )
|--------3--6--5--6--3-----------3--6/8p5-----------||-----4-----------------4-----4------------6--------||--3-----------------------3------------------5-----||---------------------------------------------------||---------------------------------------------------||---------------------------------------------------|
|--------3--6--5--6--3-----------3--6/8p5-----------||-----4-----------------4-----4------------6--------||--3-----------------------3------------------5-----||---------------------------------------------------||---------------------------------------------------||---------------------------------------------------|
|--------6--10\8p5----------------10--13\8p5----------||-----8-------------6---------11--------------6-------||--7-------------------5--10---------------------5----||-----------------------------------------------------||-----------------------------------------------------||-----------------------------------------------------|
|--------6--10\5p1----------------10--13\8p5----------||-----8-------------3---------11--------------6-------||--7-------------------2--10---------------------5----||-----------------------------------------------------||-----------------------------------------------------||-----------------------------------------------------|
Repeat Previous Section Again
|--6p3-----3p0-----8p5-----5p2--------||-------4-------1-------6-------3-----||----------------------------------2--||-------------------------------------||-------------------------------------||-------------------------------------|
| Or you can play it this way|-------------------------------------------------||-------------------------------------------------||--15p12------12p9------17p14------14p11----------||---------13--------10---------15---------12------||---------------------------------------------12--||-------------------------------------------------|
|----------------------------------------------------------------------||----------------------------------------------------------------------||--12--12----------10--10----------------------------------------------||----------10--10----------11--11----------10--10----------------------||----------------------------------13--13----------13--13--------------||----------------------------------------------------------------------|
|----------------------------------------------------------------------||----------------------------------------------------------------------||----------------------------------------------------------------------||--5--5--------3--3----------------------------5--\---/--\---/--\------||--------3--3--------4--4--------3--3----------5---\-/----\-/----\-----||--------------------------6--6--------6--6----3----v------v------\----|
|-----------------------------------------------||-----------------------------------------------||-----------------------------------------------||-----------------------------------------------||---------------------------3-------------------||--4--3--1----------------------4--3------------||-----------3--------------------------3--------|
Guitar Solo:
|---------------------------------------------------------13\----------||--\-/15--\-/14--\-/13----------------15\----13------------------------||---v------v------v-------13--12--10-------------13--12----------------||----------------------------------------------------------------------||----------------------------------------------------------------------||----------------------------------------------------------------------|
|--17p13--16p13--15p13--12h13p12p10-------------------------------------||-----------------------------------13--12--10~~~--12h13p12p10----------||---------------------------------------------------------------13--12--||-----------------------------------------------------------------------||-----------------------------------------------------------------------||-----------------------------------------------------------------------|
|--------------12------13-----12-----10--13t15p13p10h13p10--------------------||----------13----------------------------------------------h13t15p13p10h13p10-||--10~~~~----------10------10-----10------------------------------------------||-----------------------------------------------------------------------------||-----------------------------------------------------------------------------||-----------------------------------------------------------------------------|
|------------------------------------------------------------------------||------------------------------------------------------------------------||--h12t14p12p10---------------10h12t17p12p10h12p10h12t17p12p10h12--------||----------------12t15/17p12---------------------------------------------||------------------------------------------------------------------------||------------------------------------------------------------------------|
|---------------------------------------------------------------------||------------------------Hard--To--Hear-------------------------------||--13--12--10---------(----10----------)------------------------------||--------------12\----(-10----12p10h12-)--12--14--12--14--15--14--15--||-----------------\---------------------------------------------------||------------------\--------------------------------------------------|
|----------------------------------------------------------------------||--------------12--13--12-\--------------------------------------------||--12--14--15--------------\-Dive-Bomb---------------------------------||---------------------------\------------------------------------------||----------------------------------------------------------------------||----------------------------------------------------------------------|
Tap to rate this tab
 
# A B C D E F G H I J K L M N O P Q R S T U V W X Y Z