Children Of Bodom - Children Of Decadence tab

tabbed by Cronux

Posting it because i think its a better version for Alexi's parts than the version thats already up.

D||----------------------------------|----------------------------------------|A||--------------17--------------17--|--------------17------------------------|F||--16------16------17------17------|--16------16------14-----------14-16-17-|C||------14--------------14----------|------14--------------14-16-17----------|G||----------------------------------|----------------------------------------|D||----------------------------------|----------------------------------------|
----------------------------------|---------------------------14-15-17-17b---|--------------17--------------17--|------------------13-15-17----------------|--16------16------17------17------|--16--11-12-14-16-------------------------|------14--------------14----------|------------------------------------------|----------------------------------|------------------------------------------|----------------------------------|------------------------------------------|
----------------------------------|----------------------------------------|--------------17--------------17--|--------------17------------------------|--16------16------17------17------|--16------16------14-----------14-16-17-|------14--------------14----------|------14--------------14-16-17----------|----------------------------------|----------------------------------------|----------------------------------|----------------------------------------|
----------------------------------|------------------------------------------|--------------17--------------15--|--17--12-12-15-15-------------------------|--16------16------17------17------|------------------14-14-16-16-------------|------14--------------14----------|------------------------------12-12-14----|----------------------------------|------------------------------------------|----------------------------------|------------------------------------------|
----------------------------------|----------------------------------------|--------------17--------------17--|--------------17------------------------|--16------16------17------17------|--16------16------14-----------14-16-17-|------14--------------14----------|------14--------------14-16-17----------|----------------------------------|----------------------------------------|----------------------------------|----------------------------------------|
----------------------------------|---------------------------14-15-17-17b---|--------------17--------------17--|------------------13-15-17----------------|--16------16------17------17------|--16--11-12-14-16-------------------------|------14--------------14----------|------------------------------------------|----------------------------------|------------------------------------------|----------------------------------|------------------------------------------|
----------------------------------|----------------------------------------|--------------17--------------17--|--------------17------------------------|--16------16------17------17------|--16------16------14-----------14-16-17-|------14--------------14----------|------14--------------14-16-17----------|----------------------------------|----------------------------------------|----------------------------------|----------------------------------------|
----------------------------------|------------------------------------------|--------------17--------------15--|--17--12-12-15-15-------------------------|--16------16------17------17------|------------------14-14-16-16-------------|------14--------------14----------|------------------------------12-12-14----|----------------------------------|------------------------------------------|----------------------------------|------------------------------------------|
--------------------------|--------------------------------|--------------------------|--------------------------------|--------------------------|--------------------------------|--15----15--------15---15-|--------------------------------|--------------------------|--------------------------------|--------------------------|--7-7--7-7-7-7-7-7-7--7-7-7-7-7-|
--------------------------------|--------------------------------|--------------------------------|--------------------------------|--------------------------------|--------------------------------|--------------------------------|--------------------------------|--------------------------------|--------------------------------|--7-7--7-7-7-7-7-7-7--7-7-7-7-7-|--7-7--7-7-7-7-7-7-7--7-7-7-7-7-|
-------------------|--------------------------------|-------------------|--------------------------------|--2----------------|--------------------------------|--3----------------|--------------------------------|--3----------------|--------------------------------|--1----------------|--7-7--7-7-7-7-7-7-7--7-7-7-7-7-|
-------------------------------|--------------------------------|-------------------------------|--------------------------------|---------------------------6---|--------------------------------|---------------------------7---|--------------------------------|---------------------------7---|--------------------------------|--7-7--7-7-7-7-7-7-7-7-7-7-5---|--7-7--7-7-7-7-7-7-7--7-7-7-7-7-|
--------------------------------|--------------------------------|--------------------------------|--------------------------------|--------------------------------|--------------------------------|--------------------------------|--------------------------------|---------------------9-------8--|--------------------------------|--7-7--7-7-7-7-7-7-7-10--7-7-9--|--7-7--7-7-7-7-7-7-7--7-7-7-7-7-|
-------------------------------|-----------------------------|-------------------------------|-----------------------------|---------------------------6---|--------------------------6--|---------------------------7---|-----------------------9-----|---------------------------7---|--------------------9--------|--7-7--7-7-7-7-7-7-7-7-7-7-5---|--7-7--7-7-7-7-7-7-----------|
--------------------------|--12---14----14-12-15-14-12----14-12----|--------------------------|----------------------------15-------15-|--7-6-4-9-7-6-------------|----------------------------------------|--------------9------9~---|----------------------------------------|--------------------------|----------------------------------------|--------------------------|----------------------------------------|
--12---14----14-12-15-14-12----14-12----|--12---10--------10-10----|----------------------------15-------15-|--------------------------|----------------------------------------|--------------------------|----------------------------------------|--------------------------|----------------------------------------|--------------------------|----------------------------------------|--------------------------|
--12---10--------10-9h10h9----|--12---14----14-12-15-14-12----14-12----|---------------------------12-|----------------------------15-------15-|------------------------------|----------------------------------------|------------------------------|----------------------------------------|------------------------------|----------------------------------------|------------------------------|----------------------------------------|
--12---14----14-12-15-14-12----14-12----|--12---10--------10-10----|----------------------------15-------15-|--------------------------|----------------------------------------|--------------------------|----------------------------------------|--------------------------|----------------------------------------|--------------------------|----------------------------------------|--------------------------|
--12---10--------10-10----|--------------------------------|--------------------------|--------------------------------|--------------------------|--------------------------------|--------------------------|--------------------------------|--------------------------|--------------------------------|--------------------------|--0-0--0-0-0-0-0-0-0--0-0-0-0-0-|
------------------------------|--------------------------------|------------------------------|--------------------------------|------------------------------|--------------------------------|--------------------------0---|--------------------------------|--------------------------0---|--------------------------------|--0-0--0-0-0-0-0-0-0--0-0-----|--0-0--0-0-0-0-0-0-0--0-0-0-0-0-|
---------------------------------|--------------------------------|---------------------------------|--------------------------------|---------------------------------|--------------------------------|---------------------------------|--------------------------------|--7-7-10--7-7-9--7-7-10--7-7-10--|--------------------------------|---------------------------------|--0-0--0-0-0-0-0-0-0--0-0-0-0-0-|
------------------------------|--------------------------------|------------------------------|--------------------------------|------------------------------|--------------------------------|--------------------------0---|--------------------------------|--------------------------0---|--------------------------------|--0-0--0-0-0-0-0-0-0--0-0-----|--0-0--0-0-0-0-0-0-0--0-0-0-0-0-|
--------------------------|--------------------------|--------------------------|--------------17-17-12-12-|--------------7~-------7--|--------------------------|--------5-7-9-------------|--------------------------|--5-7-9-------------------|--------------------------|--------------------------|--------------------------|
--------------------------------------------|------------------|--15-15-------------------------------------|------------------|--------14-14-16-16-12-12-14-14-------------|------------------|--------------------------------12-12-14----|------------------|--------------------------------------------|------------------|--------------------------------------------|------------------|
---------------------------------|--------------------------|---------------------------------|--------------17-17-12-12-|------------------9h-12--12h-11--|--------------------------|--10h-12--12h-10-----------------|--------------------------|---------------------------------|--------------------------|---------------------------------|--------------------------|
--------------------------------------------|------------------|--15-15-------------------------------------|------------------|--------14-14-16-16-12-12-14-14-------------|------------------|--------------------------------12-12-14----|------------------|--------------------------------------------|------------------|--------------------------------------------|------------------|
---------------------------------|------------------------|---------------------------------|------------------------|------------------9h-12--12h-11--|--9---7---9-------------|--10h-12--12h-10-----------------|--9---7---9-------------|---------------------------------|--7---5---7-------------|---------------------------------|---------------0--0--0--|
----------------------------|------------------------|----------------------------|------------------------|----------------------------|--9---7---9-------------|----------------------------|--9---7---9-------------|----------------------------|--7---5---7-------------|--0--0--0-0-0--0--0-0-0--0--|---------------0--0--0--|
------------------------------|------------------------|-----------12-----------------|------------------------|-----9------------12--12h-11--|--9---7---9-------------|--------9------9--------------|--9---7---9-------------|--7---------------------------|--7---5---7-------------|------------------------------|---------------0--0--0--|
----------------------------|-------------------------|----------------------------|-------------------------|----------------------------|--10---7---9-------------|----------------------------|--10---7---9-------------|----------------------------|--8----5---7-------------|--0--0--0-0-0--0--0-0-0--0--|----------------0--0--0--|
----------------------------|-----------------------------|----------------------------|-----------------------------|----------------------------|-----------------------------|----------------------------|---------------------------9-|--2--2--2-2-2--2--2-2-2--2--|--2--2--2-2-2--2--2-2-2--7---|--0--0--0-0-0--0--0-0-0--0--|--0--0--0-0-0--0--0-0-0------|
----------------------------|--------------------------|----------------------------|--------------------------|--9-------------------------|--------------------------|----------------------------|---------------------3----|-----2--2-2-2--2--2-2-2--2--|--2--2--2-2-2--2-2---3----|-----0--0-0-0--0--0-0-0--0--|--0--0--0-0-0--0-0---1----|
----------14--17--16--14------14--|----------14--17--16----------14--|------14------------------17------|------14--------------17--14------|----------------------------------|----------------------------------|--16------------------------------|--16------------------------------|----------------------------------|----------------------------------|----------------------------------|----------------------------------|
--17---21---17--16------------|--14-16-17-16-14----14--14~---14~---|---------------------19---17--|-----------------17-----------------|------------------------------|------------------------------------|------------------------------|------------------------------------|------------------------------|------------------------------------|------------------------------|------------------------------------|
----------14--17--16--14------14--|----------14--17--16----------14--|------14------------------17------|------14--------------17--14------|----------------------------------|----------------------------------|--16------------------------------|--16------------------------------|----------------------------------|----------------------------------|----------------------------------|----------------------------------|
--17---21---17--16------------|--14-16-17-16-14----14----14-16-17-16-14----|---------------------19---17--|-----------------17----------------------17-|------------------------------|--------------------------------------------|------------------------------|--------------------------------------------|------------------------------|--------------------------------------------|------------------------------|--------------------------------------------|
--14-16-17-16-14----14----14-16-17-16-14----|-----------------17----------------------17-|--------------------------------------------|--------------------------------------------|--------------------------------------------|--------------------------------------------|
--17-19-21-19-17----17----17-19-21-19-17----|--21h19h17h16-------------|-----------------21----------------------21-|--------------------------|--------------------------------------------|--------------------------|--------------------------------------------|--------------------------|--------------------------------------------|--------------------------|--------------------------------------------|--------------------------|
----------------------------------|----------------------------------------|--------------16--------------16--|--------------16------------------------|--15------15------16------16------|--15------15------13-----------13-15-16-|------13--------------13----------|------13--------------13-14-16----------|----------------------------------|----------------------------------------|----------------------------------|----------------------------------------|
----------------------------------|---------------------------13-14-16-16~--16-|--------------16--------------16--|------------------12-14-16------------------|--15------15------16------16------|--15--10-11-13-15---------------------------|------13--------------13----------|--------------------------------------------|----------------------------------|--------------------------------------------|----------------------------------|--------------------------------------------|
----------------------------------|----------------------------------------|--------------16--------------16--|--------------16------------------------|--15------15------16------16------|--15------15------13-----------13-15-16-|------13--------------13----------|------13--------------13-14-16----------|----------------------------------|----------------------------------------|----------------------------------|----------------------------------------|
----------------------------------|--------------16--------------16--|--15------15------16------16------|------13--------------13----------|----------------------------------|----------------------------------|
--16h14h11-14h11h9-----------------------------------------------|-------------------16h14h11-14h11h9-14-9-7-----------------------|-------------------------------------------15h11h8-13h8h6-11h6h8-|-----------------------------------------------------------------|-----------------------------------------------------------------|-----------------------------------------------------------------|
|---12---14----14-12-15-14-12----14-12----||-----------------------------15-------15-||*----------------------------------------||*----------------------------------------||-----------------------------------------||-----------------------------------------|
--12---14----14-12-15-14-12----14-12----|--12---10--------10-10----|----------------------------15-------15-|--------------------------|----------------------------------------|--------------------------|----------------------------------------|--------------------------|----------------------------------------|--------------------------|----------------------------------------|--------------------------|
--12---10--------10-9h10h9-----||--12---10--------10-10----|---------------------------10--||--------------------------|------------------------------*||--------------------------|------------------------------*||--------------------------|-------------------------------||--------------------------|-------------------------------||--------------------------|
|---------------------------------|-------------------------------||---------------------------------|-------------------------------||*--------------------------------|-------------------------------||*--------------------------------|---------------------------4---||---6-6--6-6-6-6-6-6-6--6-6-6-6-6-|--6-6--6-6-6-6-6-6-6-6-6-6-2---||---------------------------------|-------------------------------|
--------------------------------|--------------------------------||--------------------------------|--------------------------------||--------------------------------|-------------------------------*||--------------------------------|---------------------------6---*||--6-6--6-6-6-6-6-6-6--6-6-6-6-6-|--6-6--6-6-6-6-6-6-6-6-6-6-4----||--------------------------------|--------------------------------||
------------------------------||---------------------------|------------------------------||---------------17-17-12-12-|------------------------------||*--------------------------|------8------7------9------8--||*--------------------------|--6-9----6-9----6-9----6-9----||---------------------------|------------------------------||---------------------------|
--------------------------------------------|------------------|--15-15-------------------------------------|------------------|--------14-14-16-16-12-12-14-14-------------|------------------|--------------------------------12-12-14----|------------------|--------------------------------------------|------------------|--------------------------------------------|------------------|
----------------------------------||---------------------------------|----------------------------------||---------------------------------|------------------9h-12--12h-11--*||------------------9h-12--12h-11--|--10h-12--12h-10-----------------*||--10h-12--12h-10-----------------|----------------------------------||---------------------------------|----------------------------------||---------------------------------|
------------------------|----------------------------|------------------------|------------------------|----------------------------|------------------------|--9---7---9-------------|----------------------------|--9---7---9-------------|--9---7---9-------------|----------------------------|--9---7---9-------------|--7---5---7-------------|----------------------------|--7---5---7-------------|---------------0--0--0--|--0--0--0-0-0--0--0-0-0--0--|---------------0--0--0--|
------------------------------|------------------------|-----------12-----------------|------------------------|-----9------------12--11------|--9---7---9-------------|--------9------9----------12--|--9---7---9-------------|--7---------------------------|--7---5---7-------------|------------------------------|---------------0--0--0--|
----------------------------|-------------------------|----------------------------|-------------------------|----------------------------|--10---7---9-------------|----------------------------|--10---7---9-------------|----------------------------|--8----5---7-------------|--0--0--0-0-0--0--0-0-0--0--|----------------0--0--0--|
--------------------------|----------14--17--16--14------14--|--------------------------|------14------------------17------|--------------------------|----------------------------------|--------------------------|--16------------------------------|--2--2--2-2-2--2-2---3----|----------------------------------|--0--0--0-0-0--0-0---1----|----------------------------------|
----------14--17--16----------14--|--17---21---17--16------------|------14--------------17--14------|---------------------19---17--|----------------------------------|------------------------------|--16------------------------------|------------------------------|----------------------------------|------------------------------|----------------------------------|------------------------------|
--14-16-17-16-14----14--14~---14~---|----------14--17--16--14------14--|-----------------17-----------------|------14------------------17------|------------------------------------|----------------------------------|------------------------------------|--16------------------------------|------------------------------------|----------------------------------|------------------------------------|----------------------------------|
----------14--17--16----------14--|--17---21---17--16------------|------14--------------17--14------|---------------------19---17--|----------------------------------|------------------------------|--16------------------------------|------------------------------|----------------------------------|------------------------------|----------------------------------|------------------------------|
--14-16-17-16-14----14----14-16-17-16-14----|-----------------17----------------------17-|--------------------------------------------|--------------------------------------------|--------------------------------------------|--------------------------------------------|
--14-16-17-16-14----14----14-16-17-16-14----|-----------------17----------------------17-|--------------------------------------------|--------------------------------------------|--------------------------------------------|--------------------------------------------|
--17-19-21-19-17----17----17-19-21-19-17----|------------------------|-----------------21----------------------21-|------------------------|--------------------------------------------|-------------7---6---7--|--------------------------------------------|--4---7---6--7---6---7--|--------------------------------------------|--4---7---6--5---4---5--|--------------------------------------------|--2---5---4-------------|
--------------------------------------------|-----12---10-12-12-10---12-12---10-12-12-10-|--9-----9-------------9-------9-------------|--------------------------------------------|--------------------------------------------|--------------------------------------------|
----------------------------------------------|----12-13---12-13-10-12----10-----------------|--9-------9-------------12----11-12-9-11----9-|-----------------------------------------12---|----------------------------------------------|----------------------------------------------|
----------------------------------------------|-------12---10-12-12-10---12-12---10-12-12-10-|--9-------9-------------9-------9-------------|----12----------------------------------------|----------------------------------------------|----------------------------------------------|
----------------------------------------------|----12-13---12-13-10-12----10-----------------|--9-------9-------------12----11-12-9-11----9-|-----------------------------------------12---|----------------------------------------------|----------------------------------------------|
----------------------------------------------|-------12---10-12-12-10---12-12---10-12-12-10-|--9-------9-------------9-------9-------------|----12----------------------------------------|----------------------------------------------|----------------------------------------------|
----------------------------------------------|----12-13---12-13-10-12----10-----------------|--9-------9-------------12----11-12-9-11----9-|-----------------------------------------12---|----------------------------------------------|----------------------------------------------|
----------------------------------------------|-------12---10-12-12-10---12-12---10-12-12-10-|--9-------9-------------9-------9-------------|----12----------------------------------------|----------------------------------------------|----------------------------------------------|
----------------------------------------------|----12-13---12-13-10-12----10-----------------|--9-------9-------------12----11-12-9-11----9-|-----------------------------------------12---|----------------------------------------------|----------------------------------------------|
--------------------------------------------------|--------15----13-15-15-13----15-15----13-15-15-13-|--12-------12-------------12-------12-------------|-----12-------------------------------------------|--------------------------------------------------|--------------------------------------------------|
--------------------------------------------------|-----15-16----15-16-13-15----13-------------------|--12-------12-------------15----14-15-12-14----12-|--------------------------------------------15----|--------------------------------------------------|--------------------------------------------------|
--------------------------------------------------|--------15----13-15-15-13----15-15----13-15-15-13-|--12-------12-------------12-------12-------------|-----15-------------------------------------------|--------------------------------------------------|--------------------------------------------------|
--------------------------------------------------|-----15-16----15-16-13-15----13-------------------|--12-------12-------------15----14-15-12-14----12-|--------------------------------------------15----|--------------------------------------------------|--------------------------------------------------|
--------19----17-19-19-17----19-19----17-19-19-17-|--17-------17-------------17-------17-------------|--------------------------------------------------|-----15-------------------------------------------|--------------------------------------------------|--------------------------------------------------|
-----19-20----19-20-17-19----17-------------------|--17-------17-------------20----19-20-17-19----17-|--------------------------------------------19----|--------------------------------------------------|--------------------------------------------------|--------------------------------------------------|
--------------------17----19-17-20-19-19-20-17-19-|--17----19-17-20-19----20-------------------------|-----19-------------------------------------------|--------------------------------------------------|--------------------------------------------------|--------------------------------------------------|
-----17-------------------------------------------|--20----19-20-17-19-20-17-19-20-17-19----17-19----|--------------------------------------20-------20-|--------------------------------------------------|--------------------------------------------------|--------------------------------------------------|
--19-15----------------------------15-19-15-------|--------17----------------------17----------17----|-----------16----------------16----------------16-|--------------17----------17----------------------|-----------------19-14-19-------------------------|--------------------------------------------------|
--24-22-19----------19-17-15----------17-15-------|-----------22-20-17----------17-15-12-------17-15-|--------------------------------------------------|--------------------------------------------------|--------------------------------------------------|--------------------------------------------------|
--------------19-15-------20-19-17----------------|--20-17----------------15----------20-19-17-------|--------19-16-------16----------------------19-17-|--------------------------------------------------|--------------------------------------------------|--------------------------------------------------|
--------------------------------------------|--------------------------------------------|--16-17-19-17-16----------------------------|-----------------19-17-16-14b-14-14b14-14---|--------------------------------------------|--------------------------------------------|
--19-15----------------------------15-19-15-------|--------17----------------------17----------17----|-----------16----------------16----------------16-|--------------17----------17----------------------|-----------------19-14-19-------------------------|--------------------------------------------------|
--24-22-19----------19-17-15----------17-15-------|-----------22-20-17----------17-15-12-------17-15-|--------------------------------------------------|--------------------------------------------------|--------------------------------------------------|--------------------------------------------------|
--------------19-15-------20-19-17-20-19-17-------------------|--20-17----------------15-------------------20-19-17-20-19-17-|--------19-16-------16----------------------------------------|--------------------------------------------------------------|--------------------------------------------------------------|--------------------------------------------------------------|
--------------------------------------------------15/24-19----------------|-----------------------------------------------17----------20-------------|--19-17-16-19-17-16-------------------------16----------------21-16-------|--------------------19-17-16-19-17-16----17-------------------------17----|--------------------------------------19-------------------------------19-|--------------------------------------------------------------------------|
---------------------------------------------------------------|---------------------------------------------------------------|---------------------------------------------------------------|---------------------------------------------------7-8-7-8-7-8-|-----------------------------9-10-9-10-9-10-9-10-9-------------|--10-11-10-11-10-11-10-11-10-----------------------------------|
--------------------------------------------------------------------------|--------------------------------------------------------10-11-10-11-10-11-|-----------------------------10-11-10-11-10-11-10-11-10-------------------|--10-11-10-11-10-11-10-11-10----------------------------------------------|--------------------------------------------------------------------------|--------------------------------------------------------------------------|
--------------------------------------17-17-18-18-|--------------------------16-16-19-19-------------|--------------14-14-15-15-------------------------|--13-13-16-16-------------------------------------|--------------------------------------------------|--------------------------------------------------|
--21--21b-21-21-22b-22~-------|------------------------------|------------------------------|------------------------------|------------------------------|------------------------------|
--18----------------21----------------18----------|-----17-16-14-16-17----17-16-14-16-17----17-16-14-|--------------------------------------------------|--------------------------------------------------|--------------------------------------------------|--------------------------------------------------|
--21----------------------------------18----------|-----20-17----17-20-19-20-17----17-20----20-17----|-----------18----------------18----------------18-|--------------------------------------------------|--------------------------------------------------|--------------------------------------------------|
-----------------------------------------------19-21-22-|--------------------------------------19-21-22----------|-----------------------------18-19-21-------------------|--------------------18-19-21----------------------------|-----------17-19-21-------------------------------------|--17-19-21----------------------------------------------|
--20-19----22-----24b-24b-24b-24--24~-||--------------------|--------20-----20---------------------||--------------------|--------------------------------------||*-------------------|--------------------------------------||*--2----------------|--------------------------------------||---2----------------|--------------------------------------||---0----------------|
-----------------------|-------------------|-----------------------||-----------------------|-------------------|-----------------------||--5----7----9----11----|-------------------|-------5---------7----*||-----------------------|--2----------------|--2----5----5----7----*||--3----5----7----9-----|--2----------------|--2----3----5----5-----||-----------------------|--0----------------|--0---------3----------||
---------------------------|----------------------|-----------------------|---------------------------|----------------------|-----------------------|---------------------------|-------5----7----7----|----x-x----------------|--2------------------------|-------5----5----7----|----x-x-5----9----7----|--2------------7-7-7-7-7-7-|--7----3----5----5----|----x-x----------------|--0------------------------|----------------------|-----------------------|
------------------------|----------------------------|------------------------|------------------------|----------------------------|------------------------|--9---7---9-------------|----------------------------|--9---7---9-------------|--9---7---9-------------|----------------------------|--9---7---9-------------|--7---9---7-------------|----------------------------|--7---5---7-------------|---------------0--0--0--|--0--0--0-0-0--0--0-0-0--0--|---------------0--0--0--|
------------------------------|------------------------|-----------12-----------------|------------------------|-----9------------12--12h-11--|--9---7---9-------------|--------9------9--------------|--9---7---9-------------|--7---------------------------|--7---5---7-------------|------------------------------|---------------0--0--0--|
----------------------------|-------------------------|----------------------------|-------------------------|----------------------------|--10---7---9-------------|----------------------------|--10---7---9-------------|----------------------------|--8----5---7-------------|--0--0--0-0-0--0--0-0-0--0--|----------------0--0--0--|
----------------------------|---------------------------16-19-15-------------|----------------------------|------------------------18----------17----------|----------------------------|---------------------17----------------16-------|----------------------------|------------------18----------------------17----|--2--2--2-2-2--2--2-2-2--2--|--2--2--2-2-2--20----------------------------19-|--0--0--0-0-0--0--0-0-0--0--|--0--0--0-0-0-----------------------------------|
----------------------------|--------------------------|----------------------------|--------------------------|----------------------------|--------------------------|----------------------------|--------------------------|--2--2--2-2-2--2--2-2-2--2--|--2--2--2-2-2--2-2---3----|--0--0--0-0-0--0--0-0-0--0--|--0--0--0-0-0--0-0---1----|
----------14--17--16--14------14--|----------14--17--16----------14--|------14------------------17------|------14--------------17--14------|----------------------------------|----------------------------------|--16------------------------------|--16------------------------------|----------------------------------|----------------------------------|----------------------------------|----------------------------------|
--17---21---17--16------------|--14-16-17-16-14----14--14~---14~---|---------------------19---17--|-----------------17-----------------|------------------------------|------------------------------------|------------------------------|------------------------------------|------------------------------|------------------------------------|------------------------------|------------------------------------|
----------14--17--16--14------14--|----------14--17--16----------14--|------14------------------17------|------14--------------17--14------|----------------------------------|----------------------------------|--16------------------------------|--16------------------------------|----------------------------------|----------------------------------|----------------------------------|----------------------------------|
--17---21---17--16------------|--14-16-17-16-14----14----14-16-17-16-14----|---------------------19---17--|-----------------17----------------------17-|------------------------------|--------------------------------------------|------------------------------|--------------------------------------------|------------------------------|--------------------------------------------|------------------------------|--------------------------------------------|
--14-16-17-16-14----14----14-16-17-16-14----|-----------------17----------------------17-|--------------------------------------------|--------------------------------------------|--------------------------------------------|--------------------------------------------|
--17-16-21-19-17----17----17-19-21-19-17----|--------------------------------|-----------------21----------------------21-|--------------------------------|--------------------------------------------|-----------------7----6----7----|--------------------------------------------|--4----7----6----7----6----7----|--------------------------------------------|--4----7----6----5----4----5----|--------------------------------------------|--2----5----4-------------------|
--------------------------------|-------------------------------|--------------------------------|-------------------------------|--------------------------------|-------------------------------|--------------------------------|---------------------------2---|--------------------------------|---------------------------2---|--2-2--2-2-2-2-2-2-2--2-2-2-2-2-|--2-2--2-2-2-2-2-2-2-2-2-2-0---|
--------------------------------|-------------------------------|--------------------------------|-------------------------------|--------------------------------|-------------------------------|--------------------------------|-------------------------------|--------------------------------|---------------------4------3--|--2-2--2-2-2-2-2-2-2--2-2-2-2-2-|--2-2--2-2-2-2-2-2-2-5--2-2-4--|
--------------------------------|-------------------------------|--------------------------------|-------------------------------|--------------------------------|-------------------------------|--------------------------------|---------------------------2---|--------------------------------|---------------------------2---|--2-2--2-2-2-2-2-2-2--2-2-2-2-2-|--2-2--2-2-2-2-2-2-2-2-2-2-0---|
--------------------------------|----------------------------------|--------------------------------|----------------------------------|--------------------------------|----------------------------------|--------------------------------|----------------------------------|--------------------------------|--9-9-12--9-9-11--9-9-13--9-9-12--|--2-2--2-2-2-2-2-2-2--2-2-2-2-2-|----------------------------------|
----------------------|----------||----------------------|----------||----------------------|----------||--4---2---4~-4~-------|----------||--4---2---------------|----------||--2---0---------------|----------||
Tap to rate this tab
 
# A B C D E F G H I J K L M N O P Q R S T U V W X Y Z