City And Colour - Day Old Hate tab

Day Old Hate
City and Colour (Dallas Green)

Tabbed by: Steve (stephen_mogilny@hotmail.com)

Tuning: Standard
Capo 4th fret

Intro:

|-----0h2--------2h3p2--2--2-|-5---0-||---------0---------------0--|-5---2-||-----------0----------0-----|-0---0-||--0h2-----------------------|-4---2-||----------------------------|-0---3-||----------------------------|-------|
Verses: (Parts of the intro riff are sometimes played during the verse)
|2---5---0---0--||3---5---3---3--||0---0---0---0--||2---4---2---2--||0---0---3---3--||---------------|
Chorus:
|0--0--||3--3--||0--0--||2--0--||0--3--||------|
Solo: (Verse chords in background)
|-2--3--5--||-0--0--0--||-0--0--0--||-2--3--5--||--0--0--0-||----------|
|-7---5---3-2----2h3p2--2-----||---5---3-----3---------------||-------------------------4---| x2|-----------------------------||-----------------------------||-----------------------------|
|-7--7s10-----5---5s12-10----||--5------9-----3--------10--||----------------------------||----------------------------||----------------------------||----------------------------|
|-3-2---2-----| |-7---10-----5--12------||----3---3----| |---5----9-----3---10---||-------------| |-----------------------||-------------| |-----------------------||-------------| |-----------------------||-------------| |-----------------------|
|-3-2----2----2---2h3p2-----0--------------3---||-----3---3----3--------0----0------3-------3--||---------------0--------0-------------2p0-----||--------------------------------0h2-----------||----------------------------------------------|
|----3-2-0----| |--2---2h3p2-----0--------------3-----||-3-------3p0-| |---3--------0----0-----3--------3--5-||-------------| |----0--------0-------------2p0-------||-------------| |--------------------0h2--------------||-------------| |-------------------------------------||-------------| |-------------------------------------|
|-2--3--5--||-0--0--0--||-0--0--0--||-2--3--5--||--0--0--0-||----------|
Order: Intro x2 Verse x5 Chorus x4 Intro x2 Verse x3 Chorus x4 Solo Verse x4 Thanks to all the previous tabs. I did use alot of the material from the previous tabs. just picked stuff from one and another and then listened to get a correct tabbing of the solo. Enjoy.
Tap to rate this tab
 
# A B C D E F G H I J K L M N O P Q R S T U V W X Y Z