Craigs Brother - Divorce tab

Divorce - Craigs Brother


D# tuning

Intro 1 Gtr 2-|---------------------------------------------------------------------------|-|---------------------------------------------------------------------------|-|-13------13------13----------------------16------16------16------------11--|-|-13-1313-13-1313-13--14------14------14--16-1616-16-1616-16--1616-1616-11--|-|-11-1111-11-1111-11--14-1414-14-1414-14--14-1414-14-1414-14--1313-1414--9/-|-|-----*-*-----*-*-----12-1212-12-1212-12------*-*-----*-*-------------------|
* * * *-|---------------------------------------------------------------------|-|---------------------------------------------------------------------|-|-13------13------13---------------------------------------888-121212-|-|-13-1313-13-1313-13--14------14------14--9----9----9--555------------|-|-11-1111-11-1111-11--14-1414-14-1414-14--9-99-9-99-9--555-666-101010-|-|-----*-*-----*-*-----12-1212-12-1212-12--7-77-7-77-7--333------------|
* * * * ** ** Gtr 1-|-------------------------------------------------------------|------|-|-------------------------------------------------------------|------|-|---------------- --------------------------------------------|------|-|-------------------------------------------------------------|------|-|-------------------------------------------------------------|-6666-|-|-------------------------------------------------------------|-4444-|
****-|------------------------------------------------------------|-|------------------------------------------------------------|-|------------------------------------------------------------|-|----------9999-----------4444-------------------------------|-|----------7777-----------2222-----------------4-------------|-|----------****-----------****-----------------2-------------|
* Gtr 2-|------------------------------------------------------------|-|------------------------------------------------------------|-|----------------9----9----9----4----4----4------------------|-|-6----6----6----9-99-9-99-9-9--4-44-4-44-4-4--4----4----4---|-|-6-66-6-66-6-6--7-77-7-77-7-7--2-22-2-22-2-2--4-44-4-44-4-4-|-|-4-44-4-44-4-4----**---**---*----**---**---*--2-22-2-22-2-2-|
** ** * ** ** * Both Gtrís-|-------------------------------|-|-------------------------------|-|-------------4---------8---12--|-|-6-----------4-8--555----r---r-|-|-6-6-8--2-8--2---------6---10--|-|-4-4----0---------333----------|
* *Intro 2 Gtr 1-|-----------------x3-|------------------------|-|--------------------|------------------------|-|---------1616-15-11-|-13-11-9--13--13131313--|-|-66--99-------------|----------------------r-|-|-66--99--1414-13--9-|-11--9-7-/11--11111111--|-|-44--77-------------|------------------------|
Gtr 2-|-----------------x3-|------------------|-|--------------------|------------------|-|---------1616-15-11-|-9-8-6--9--9999---|-|-66--99-------------|----------------r-|-|-66--99--1414-13--9-|-7-6-4-/7--7777---|-|-44--77-------------|------------------|
Verse 1 Both Gtrís-|-------------------------------------|------------------------------|-|-------------------------------------|------------------------------|-|-------------------------------------|-------------9----------------|-|-9-----6-----4---------------------4-|-9-----6-----9-10--9-8-6--4---|-|-9-12--6-12--4-12--2-2-2-2-2-2-2-2-4-|-9-12--6-12--7-----7-6-4--4-r-|-|-7-----4-----2-----0-0-0-0-0-0-0-0-2-|-7-----4-----------*-*-*--2---|
* * * * * * * *Chorus 1 Gtr 1-|---------------------------------------|-|---------------------------------------|-|------11----9-----131313--111111--9----|-|-9----11-6--9-12--131313--111111--9-12-|-|-9-6---9----7-----111111---9-9-9--7----|-|-7-------------------------------------|
Gtr 2-|-----/7777-77-----77-------------------------------|-|--------------7-9----7-9---------------------------|-|------------------------------------9--------------|-|-9------------------------666--444--9-6--8-99-8-99-|-|-9-6----------------------666--444--7----7-77-7-77-|-|-7------------------------444--222-----------------|
Gtr 1-|------------------|-|------------------|-|------11-----9----|-|-9----11-12--9-12-|-|-9-6---9-----7----|-|-7----------------|
Gtr 2-|-----------77-----77-----|-|--------------7-9----7-9-|-|------11-----------------|-|-9----11-6---------------|-|-9-6---9-----------------|-|-7-----------------------|
Post Chorus Gtr 1-|---------------------------------------------|-|---------------------------------------------|-|---------------------------------------------|-|-6--------4------2-----------------------4-4-|-|-6--------4------2-r---------------------4-4-|-|-4--------2------0-----------------------2-2-|
Gtr 2-|---------------------------------------------|-|---------------------------------------------|-|--1-3-3-4----1-3--1-r------------------------|-|-----------4----------4-r-2-r--1h2p1---------|-|-------------------------------------4-2-1---|-|-------------------------------------------2-|
Break Gtr 1-|--------------------|-----------------x2-|---------------------|-|--------------------|--------------------|---------------------|-|---------1616-15-11-|---------1616-15-11-|-13-11-------9-------|-|-66--99-------------|-66--99-------------|-------99999-9-xxx---|-|-66--99--1414-13--9-|-66--99--1414-13--9-|-11--9-77777-7-xxx---|-|-44--77-------------|-44--77-------------|-------*****-------7-|
Gtr 2-|---------------x1-|-----------------x2-|--------------------|-|------------------|--------------------|--------------------|-|-1-----1616-15-11-|---------1616-15-11-|-9--8-------6-------|-|------------------|-66--99-------------|------66666-6-------|-|---2---1414-13--9-|-66--99--1414-13--9-|-7--6-44444-4-xxx---|-|------------------|-44--77-------------|------*****-------7-|
Verse 2 Gtr 1-|-------------------------------------|-|-------------------------------------|-|------------11-----------------------|-|-9-----6----11-12--------------------|-|-9-12--6-12--9-----11-16--13-8--14-8-|-|-7-----4------------*------*-----*---|
Gtr 2-|-----------------------------------------------|-|-----------------------------------------------|-|-4----------11----------9------9------9------9-|-|-4-12--6----11-12--9999-9-9999-9-9999-9-9999-9-|-|-2-----6-12-/9-----7777-7-7777-7-7777-7-7777-7-|-|-------4-----------****---****---****---****---|
Both Gtrís-|------------------------------|-|------------------------------|-|-------8-----9-----11---------|-|-9-----8-12--9-12--11-6--11-6-|-|-9-12--6-----7------9-----9---|-|-7------------------------*---|
Bridge Both Gtrís-|------------------------|----------------------|-|------------------------|----------------------|-|------88-99-------------|------9---------------|-|-6----88-99--9999----44-|-6----9-6--9----4-----|-|-6-6--66-77--9999-99-44-|-6-6--7----9-6--4-4-6-|-|-4-----------7777-66-22-|-4---------7----2-2---|
* Gtr 1-|----------------------|---------------------------|-|----------------------|---------------------------|-|------88-99--11---9---|-8----9----------------9---|-|-6----88-99----6----6-|---6----6---9----4-------r-|-|-6-6--66-77---9---7---|-6----7-----9-6--4-r--/7---|-|-4--------------------|------------7----2---------|
Gtr 2-|------------------------|-------------------------|-|------------------------|-------------------------|-|------88-99-------------|------9------------------|-|-6----88-99--9999----44-|-6----9-6--9----4----8---|-|-6-6--66-77--9999-99-44-|-6-6--7----9-6--4-r----r-|-|-4-----------7777-66-22-|-4---------7----2---/6---|
Chorus 2 Gtr 1-|---------------------------------------|-|---------------------------------------|-|------11----9-----131313--111111--9----|-|-9----11-6--9-12--131313--111111--9-12-|-|-9-6---9----7-----111111---9-9-9--7----|-|-7-------------------------------------|
Gtr 2-|----7-r----7-r--77-----77-----------------------------|-|-/7------7---------7-9----7-9-------------------------|-|------------------------------131313-1313-11-9----888-|-|-----------------------------------------------8------|-|------------------------------111111-1111\-9-7----666-|-|------------------------------------------------------|
Gtr 1-|------------------|-|------------------|-|------11-----9----|-|-9----11-12--9-12-|-|-9-6---9-----7----|-|-7----------------|
Gtr 2-|---7-r----7-r----7r-----------|-|-7------7------7-----77-------|-|------------------------99-88-|-|------------------------------|-|------------------------------|-|------------------------------|
Post Chorus Gtr 1-|------------------------------|-|------------------------------|-|--16---16-1515-15--13---9-11--|-|----6----------------6------r-|-|-/14---14-1313-13--11---7--9--|-|------------------------------|
Gtr 2-|-------------------------------------------|-|-------------------------------------------|-|-------------------------------------------|-|-----9-13-r--1333-1111-9-----9-r--9-r-11-r-|-|-/11---------1111--9-9-7-/11------7----9---|-|-------------------------------------------|
Outro 1 Gtr 1-|-----------------------------------|-|-----------------------------------|-|-11------11------------------------|-|---r--xx---r--4----6----6--2----2--|-|--9---xx--9---4-r--6-r--6--2-r--2--|-|------xx------2/---4----4\-0----0/-|
Gtr 2-|---------------------------------|-|---------------------------------|-|---------------------------------|-|-9----9--4----4--6----6--2----2--|-|-9-r--9--4-r--4--6-r--6--2-r--2--|-|-7----7\-2----2/-4----4\-0----0/-|
Both Gtrís-|-------------------------------------------|-|-------------------------------------------|-|----------------------9999-9-8-8-6-6-6-8-6-|-|-9----9--4----4--6-------------------------|-|-9-r--9--4-r--4--6-r--7777-7-6-6-4-4-4/6\4-|-|-7----7\-2----2/-4----****---*---*---------|
Outro 2 Gtr 1-|-----------------------------|-|-----------------------------|-|-11----6----88-99-8-----4----|-|---12----6----------12----12-|-|-/9----4----66-77-6-----2----|-|-----------------------------|
Gtr 2-|------------------------------|-|------------------------------|-|-------------------9-----11---|-|-9-----4-----6-----9-12----12-|-|-9-12--4-12--6-12--7------9---|-|-7-----2-----4----------------|
Gtr 1-|-----------------------------------------------|-|-----------------------------------------------|-|-11----6----88-99--8888-11111111-9-8-------4---|-|---12----6----------------------------2----4-r-|-|--9----4----66-77--6666--9-9-9-9-7-6--2-r--2---|-|--------------------------------------0--------|
Gtr 2-|-------------------------------------|-|--------------------------5----------|-|----------------------------4----4---|-|-4-----6666-8888-9-9--2-------2--4-r-|-|-4-12--6666-8888-9-9--2-r--------2---|-|-2-----4444-6666-7-7--0--------------|
Tap to rate this tab
 
# A B C D E F G H I J K L M N O P Q R S T U V W X Y Z