Craigs Brother - Back And Forth tab

Back and Forth - Craig's Brother


Tuning: D#

Intro Gtr 1-|-----6-r-----5-r-----6-r-----8-r-|-----------|-|---8-------8-------8-------8-----|-----------|-|-8-------8-------7-------7-------|-----------|-|---------------------------------|-5-----5-8-|-|---------------------------------|-5-555-5-8-|-|---------------------------------|-3-333-3-6-|
*** Gtr 2-|---------------------------------|-----------|-|---------------------------------|-----------|-|---------------------------------|-----------|-|---------------------------------|-5-----5-8-|-|---------------------------------|-5-555-5-8-|-|---------------------------------|-3-333-3-6-|
***Verse 1 Both Gtrís-|-------------------------------------------------------------------------|-|-------------------------------------------------------------------------|-|-8------8-----8-----8----8------8-----8-----8----------------------------|-|-8-8888-8-888-8-888-8-88-8-8888-8-888-8-888-8--5------5-----5-----5-5----|-|-6-6666-6-666-6-666-6-66-6-6666-6-666-6-666-6--5-5555-5-555-5-555-5-5-12-|-|---****---***---***---**---****---***---***----3-3333-3-333-3-333-3-3----|
**** *** ***Post Verse Both Gtrís-|--------------------------------------|---------------------------|-|--------------------------------------|---------------------------|-|---------101010-----------------------|---------888---------------|-|-101010--101010--5------5-----5-----5-|-101010--888--5--------5---|-|-101010---8-8-8--5-5555-5-555-5-555-5-|-101010--666--5-555555-5-6-|-|--8-8-8----------3-3333-3-333-3-333-3-|--8-8-8-------3-333333-3---|
**** *** *** ******Verse 2 - Gtr 1 (None) Gtr 2-|-----------------------------------------------------|-|-----------------------------------------------------|-|-----10-----8-----7---8---------10-------14-------15-|-|---8------8-----8-------8----10-------12-------12----|-|-6------6-----6-----6------8-------10-------10-------|-|-----------------------------------------------------|
Gtr 1 (Fade in louder)-|--------------------------|-|--------------------------|-|-5^5^5^5^5^5^5^5^5^5^5^5^-|-|--------------------------|-|--------------------------|-|--------------------------|
Gtr 2-|------------------------------|-|------------------------------|-|----15---14----12----14----15-|-|-12----12---12----12----12----|-|------------------------------|-|------------------------------|
Both Gtrís-|------------------------------------------------------|-|------------------------------------------------------|-|-----10-----8-----7-----8-------------3---------------|-|---8------8-----8-----8---------5-----------5-----5---|-|-6------6-----6-----6---------5-----5-----5----55-5-6-|-|---------------------------\3-----3-----3------33-3---|
**Pre Chorus Both Gtrís-|----------------------------------------------|-|----------------------------------------------|-|-------------1010101010-----------------------|-|-1010101010--1010101010--5------5-----5-----5-|-|-1010101010---8-8-8-8-8--5-5555-5-555-5-555-5-|-|--8-8-8-8-8--------------3-3333-3-333-3-333-3-|
**** *** *** Gtr 1-|--------------------15------------------------|-|-----------------------15---------------------|-|-------------88888----------------------------|-|-1010101010--88888---------5--------5555--3-3-|-|-1010101010--66666---------5-555555-5555--3-3-|-|--8-8-8-8-8----------------3-333333-3333--1-1-|
****** Gtr 2-|-----------------------15----------------------|-|--------------------15-------------------------|-|-------------88888-----------------------15-17-|-|-1010101010--88888---------5--------5555-------|-|-1010101010--66666---------5-555555-5555-13-15-|-|--8-8-8-8-8----------------3-333333-3333-------|
******Chorus Both Gtrís-|------------------------------------------------------------|-|------------------------------------------------------------|-|------------------------------------------------------------|-|-5-5----5555--7-7----7777--8-8----8888--10-10------10101010-|-|-5-5-55-5555--7-7-77-7777--8-8-88-8888--10-10-1010-10101010-|-|-3-3-33-3333--5-5-55-5555--6-6-66-6666---8--8--8-8--8-8-8-8-|
** ** ** * * Gtr 1-|-----------------------------------------------------------|-|-----------------------------------------------------------|-|-8-8----8888-----------------------------------------------|-|-8-8-88-8888--5-5----5555--5---5---5---5---4---4---4h5p4---|-|-6-6-66-6666--5-5-55-5555--*-5-*-5-*-5-*-5-*-5-*-5-------5-|-|-----**-------3-3-33-3333----*---*---*---*---*---*---------|
** Gtr 2-|-----------------------------------------------------------|-|-----------------------------------------------------------|-|-8-8----8888---------------------------------------2h3p2---|-|-8-8-88-8888--5-5----5555--5---5---5---5---4---4---------4-|-|-6-6-66-6666--5-5-55-5555--*-5-*-5-*-5-*-5-*-5-*-5---------|-|-----**-------3-3-33-3333----*---*---*---*---*---*---------| **
Both Gtrís-|------------------------------------------------------------|-|------------------------------------------------------------|-|------------------------------------------------------------|-|-5-5----5555--7-7----7777--8-8----8888--10-10------10101010-|-|-5-5-55-5555--7-7-77-7777--8-8-88-8888--10-10-1010-10101010-|-|-3-3-33-3333--5-5-55-5555--6-6-66-6666---8--8--8-8--8-8-8-8-| ** ** ** * *
Post Chorus Gtr 1-|---------------|-----15-|-|---------------|--------|-|-8----8----7---|--------|-|-8-r--8-r--7-r-|--------|-|-6----6----5---|--------|-|---------------|--------|
Gtr 2-|---------------|--------|-|---------------|--------|-|---------------|--------|-|---------------|------5-|-|---------------|-5555-5-|-|---------------|-3333-3-|
****Verse 3 Both Gtrís-|------------------------------------------|-|------------------------------------------|-|-8-------------------8------8----8--------|-|-8-888888-7h8-5---7--8-8888-8-88-8-888888-|-|-6-666666-------6----6-6666-6-66-6-666666-|-|---******--------------****---**---******-|
Gtr 1-|----------------------------------------------10--------------------------|-|------11--------10--------13--------11------------------13----------------|-|-------------------------------------------------------------------7-7777-|-|-1212----121212----121212----121212----121212----121212----121212---------|-|-1010----101010----101010----101010----101010----101010----101010--5-5555-|-|--*-*-----*-*-*-----*-*-*-----*-*-*-----*-*-*-----*-*-*-----*-*-*---------|
Gtr 2-|--------------------------------------------------------------------------|-|--------------------------10------------------11--------10----------------|-|------12--------10------------------12-----------------------------7-7777-|-|-1212----121212----121212----121212----121212----121212----121212---------|-|-1010----101010----101010----101010----101010----101010----101010--5-5555-|-|--*-*-----*-*-*-----*-*-*-----*-*-*-----*-*-*-----*-*-*-----*-*-*---------|
Gtr 1-|-----------------------------------------------|-|-----------------------------------------------|-|-88----88----88----88----88----88----88----888-|-|-88-88-88-88-88-88-88-88-88-88-88-88-88-88-888-|-|-66-66-66-66-66-66-66-66-66-66-66-66-66-66-666-|-|----**----**----**----**----**----**----**-----|
Gtr 2-|-------------------------------------------------------------|-|----xx------xx------xx------xx------xx------xx----xx------xx-|-|-88-xx-1010-xx-1212-xx-1414-xx-1515-xx-1414-xx-88-xx-1010-xx-|-|----xx------xx------xx------xx------xx------xx----xx------xx-|-|-66-xx--8-8-xx-1010-xx-1212-xx-1313-xx-1212-xx-66-xx--8-8-xx-|-|----xx------xx------xx------xx------xx------xx----xx------xx-|
Pre Break Gtr 1-|-----------------------------|-|-----------------------------|-|-----------------------------|-|-5-----10-12--10-12--10-1212-|-|-5-12--/8/10---8-10---8-1010-|-|-3---------------------------|
Gtr 2-|-----------------------------|-|-----------------------------|-|-7---------------------------|-|---12--10-12--10-12--10-1212-|-|-5-----/8/10---8-10---8-1010-|-|-----------------------------|
Break Gtr 1 - x2-|----------------------|-13----------10----------|-|-------10-13-11-10-11-|----11-10-11----11-10----|-|----12----------------|----------------------12-|-|-12-------------------|-------------------------|-|----------------------|-------------------------|-|-------------------x3-|-------------------------|
Gtr 2-|----------------------------------------------|-|----------------------------------------------|-|-------------1010101010-----------------------|-|-1010101010--1010101010--5------5-----5-----5-|-|-1010101010---8-8-8-8-8--5-5555-5-555-5-555-5-|-|--8-8-8-8-8--------------3-3333-3-333-3-333-3-|
**** *** ***-|-----------------------------------------|-|-----------------------------------------|-|-------------88888-----------------------|-|-1010101010--88888--5------5-----5-----5-|-|-1010101010--66666--5-5555-5-555-5-555-5-|-|--8-8-8-8-8---------3-3333-3-333-3-333-3-|
**** *** ***Bridge 1 - Gtr 1 (None) Gtr 2-|---------------------------------|---------------------------------|-|---------------------------------|---------------------------------|-|-----3-r-----2-r-----0-r-----2-r-|-----3-r-----3-r-----3-r-----5-r-|-|---5-------5-------5-------5-----|---5-------5-------5-------5-----|-|-6-------6-------6-------6-------|-5-------5-------5-------5-------|-|---------------------------------|---------------------------------|
-|---------------------------------|---------------------------------|-|---------------------------------|---------------------------------|-|-----3-r-----2-r-----0-r-----2-r-|-----3-r-----3-r-----3-r-----3-r-|-|---5-------5-------5-------5-----|---5-------5-------5-------5-----|-|-6-------6-------6-------6-------|-5-------5-------5-------5-------|-|---------------------------------|---------------------------------|
Bridge 2 (With Violins) Gtr 2-|---------------------|-----------------------|-|---------------------|-----------------------|-|---------------------|-----------------------|-|---------------------|-8-r-------5---5---4-r-|-|-5-r--7-r--8-r--10-r-|-6----5-r----5---5-----|-|-3----5----6-----8---|------3----------------|
Both Gtrís-|---------------------|---------------------------|-|---------------------|---------------------------|-|---------------------|----------------7----10-10-|-|---------------------|-8-8-------7-6--7-8--10-10-|-|-5-r--7-r--8-r--10-r-|-6----5-8--5----5-----8--8-|-|-3----5----6-----8---|-*----3----*---------------|
* Gtr 3 - (Violins, use pedal violin effect)-|-------------------|-----------15---17-r-|-18-r-17-r-20-r-18-r-|-|-15-r-13-r-16-r-15-|-18-r-15-r-15-r-15---|-15---15---15---15---|-|-15---14---17---15-|-15---15---15--------|---------------------|-|-------------------|---------------------|---------------------|-|-------------------|---------------------|---------------------|-|-------------------|---------------------|---------------------|
-|-18-18-18-18-18-18-18-18--16--16--16--16---16--16--16--16---|-|-16-16-16-16-16-16-16-16----14--14--14--14---12--12--12--12-|-|------------------------------------------------------------|-|------------------------------------------------------------|-|------------------------------------------------------------|-|------------------------------------------------------------|
Chorus 2 Both Gtrís-|------------------------------------------------------------|-|------------------------------------------------------------|-|------------------------------------------------------------|-|-5-5----5555--7-7----7777--8-8----8888--10-10------10101010-|-|-5-5-55-5555--7-7-77-7777--8-8-88-8888--10-10-1010-10101010-|-|-3-3-33-3333--5-5-55-5555--6-6-66-6666---8--8--8-8--8-8-8-8-|
** ** ** * *-|-----------------------------------------------------------|-|-----------------------------------------------------------|-|-8-8----8888-----------------------------------------------|-|-8-8-88-8888--5-5----5555--5---5---7---7---5---5---7---7---|-|-6-6-66-6666--5-5-55-5555----5---5---5---5---5---5---5---5-|-|-----**-------3-3-33-3333----*---*---*---*---*---*---*---*-|
** Both Gtrís-|------------------------------------------------------------|-|------------------------------------------------------------|-|------------------------------------------------------------|-|-5-5----5555--7-7----7777--8-8----8888--10-10------10101010-|-|-5-5-55-5555--7-7-77-7777--8-8-88-8888--10-10-1010-10101010-|-|-3-3-33-3333--5-5-55-5555--6-6-66-6666---8--8--8-8--8-8-8-8-|
** ** ** * *-|--------------------------------|-|--------------------------------|-|-8-8----8888---------------7----|-|-8-8-88-8888--5-5----5555--7-16-|-|-6-6-66-6666--5-5-55-5555--5----|-|-----**-------3-3-33-3333-------| **
Break 2 Gtr 1-|------------|-------------------|-|------------|-------------------|-|-4----------|-4-----8-----10-10-|-|-4-32--5----|-4-32--8-30--10-10-|-|-2-----5-32-|-2-----6------8--8-|-|-------3----|-------------------|
Gtr 2 (Strum each note 4x)-|----------------------------|----------------------------|-|----------------------------|----------------------------|-|-4--6--7--9--11--12--14--16-|-12--14--11--12--6--7-----4-|-|----------------------------|-----------------------7----|-|-2--4--5--7---9--10--12--14-|-10--12---9--10--4--5-----2-|-|----------------------------|-----------------------5----|
-|----------------------------|-----------------10--11--13--15-|-|----------------------------|-----10--11--13-----------------|-|-4--6--7--9--11--12--14--16-|-12---------------7---8--10--12-|-|----------------------------|------7---8--10-----------------|-|-2--4--5--7---9--10--12--14-|-10-----------------------------|-|----------------------------|--------------------------------|
Outro Gtr 1-|------------------------------------------------------------|-|------------------------------------------------------------|-|------------------------------------------------------------|-|-5-5----5555--7-7----7777--8-8----8888--10-10------10101010-|-|-5-5-55-5555--7-7-77-7777--8-8-88-8888--10-10-1010-10101010-|-|-3-3-33-3333--5-5-55-5555--6-6-66-6666---8--8--8-8--8-8-8-8-| ** ** ** * *
Gtr 2-|-15----15----15----15-----17----17----17----17----|-|----11----11----11----11-----13----13----13----13-|-|--------------------------------------------------|-|--------------------------------------------------|-|--------------------------------------------------|-|--------------------------------------------------|
-|-18----18----18----18-----20----20----20----20----|-|----15----15----15----15-----16----16----16----16-|-|--------------------------------------------------|-|--------------------------------------------------|-|--------------------------------------------------|-|--------------------------------------------------|
Both Gtrís-|--------------------|-|--------------------|-|-888--888--555--7---|-|-888--888--555--7-r-|-|-666--666--333--5---|-|--------------------|
Tap to rate this tab
 
# A B C D E F G H I J K L M N O P Q R S T U V W X Y Z