Crosby Stills Nash And Young - Guinnevere tab

#-----------------------------PLEASE NOTE-------------------------------------#
#This OLGA file is the author's own work and represents their interpretation  #
#of the song. You may only use this file for private study, scholarship, or   #
#research. Remember to view this file in Courier, or other monospaced font.   #
#See http://www.olga.net/faq/ for more information.                           #
#-----------------------------------------------------------------------------#

Subject: c/crosby_stills_nash_and_young/guinnevere.tab

	Guinnevere (Crosby, Stills & Nash)
	==================================

Transcription by Charles Pecheur .

This is a beautiful ballad found on the CSNY (compilation) album "So
Far". It uses an unusual open tuning EBDGAD (Thanks to Harlan L
Thompson  for providing it on OLGA). I
prefer to play it with a thumb pick to strengthen the bass line. The
transcription has been done entirely by listening to the record. The
original version features two guitars (and sounds like four), but this
reproduces it fairly accurately. Judge by yourself and let me know of
any corrections or improvements.

 Tuning: E B D G A D

 Structure:
   intro
   1st verse
   2nd verse
   bridge
   3rd verse
   intro
   fade out on beginning of verse

INTRO(4/4)--0-----------0-----------0-----|-0-----------0-----------0-----|------0-----------0-----------0-|-----0-----------0-----------0-|----------0-----------0---------|---------0-----------0---------|--------------4-----------6-----|-------------4-----------6-----|--------------------------------|-------------------------------|--0-----------------------------|-0-----------------------------|
--0-----------0-----------0-----|-0-----------0-----------0-----|------0-----------0-----------0-|-----0-----------0-----------0-|----------0-----------0---------|---------0-----------0---------|--------------4-----------6-----|-------------4-----------6-----|--------------------------------|-------------------------------|--0-----------------------------|-0-----------------------------|
--0-----------0-----------0-----|-0-----------0-----------------|------5-----------5-----------5-|-----7-----------5-------5-----|----------6-----------6---------|---------6-----------6-------6-|--------------7-----------7-----|-------------7-----------7-----|--0-----------------------------|-0-----------------------------|--------------------------------|-------------------------------|
--------------0-----------0-----|-----0-----------0-------------|------------------0-----------0-|---------0-----------0---------|------6 \ 4-----------4---------|-------------4---------------4-|------7 \ 5---------------5-----|-------------------------5-----|--0-----------------------------|-0-----------------------------|--------------------------------|-------------------------------|
--0-----------0-----------0-----|-----0-----------0-------------|------0-----------0-----------0-|---------0-----------0---------|----------4-----------4---------|-------------4---------------4-|--------------4-----------4-----|-------------------------4-----|--0-----------------------------|-0-----------------------------|--------------------------------|-------------------------------|
--0-----------0-----------0-----|-----0-----------0-------------|------0-----------0-----------0-|---------0-----------0---------|----------2-----------2---------|-------------2---------------2-|--------------2-----------2-----|-------------------------2-----|--0-----------------------------|-0-----------------------------|--------------------------------|-------------------------------|
VERSE
--0-----------0-----------0-----|-0-----------0-----------0-----|------0-----------0-----------0-|-----0-----------0-----------0-|----------0-----------0---------|---------0-----------0---------|--------------------------0 h 2-|-------------------------0 h 2-|--------------2-----------------|-------------2-----------------|--0-----------------------------|-0-----------------------------|
--0-----------0-----------0-----|-0-----------0-----------0-----|------0-----------0-----------0-|-----0-----------0-----------0-|----------0-----------0---------|---------0-----------0---------|--------------------------0 h 2-|-------------------------0 h 2-|--------------2-----------------|-------------2-----------------|--0-----------------------------|-0-----------------------------|
--0-----------0-----------0-----|-0-----------0-----------0-----|------0-----------0-----------0-|-----0-----------0-----------0-|----------0-----------0---------|---------0-----------0---------|--------------------------0 h 2-|-------------------------0 h 2-|--------------2-----------------|-------------2-----------------|--0-----------------------------|-0-----------------------------| Guinnevere Had Guinnevere Drew Guinnevere Had
--0-----------0-----------0-----|-0-----------0-----------0-----|------0-----------0-----------0-|-----0-----------0-----------0-|----------0-----------0---------|---------0-----------0---------|--------------------------0 h 2-|-------------------------0 h 2-|--------------2-----------------|-------------2-----------------|--0-----------------------------|-0-----------------------------| green eyes penta- grams gol- den hair
--0-----------0-----------0-----|-0-----------0-----------0-----|------0-----------0-----------0-|-----0-----------0-----------0-|----------0-----------0---------|---------0-----------0---------|--------------------------0 h 2-|-------------------------0 h 2-|--------------2-----------------|-------------2-----------------|--0-----------------------------|-0-----------------------------| Like yours M'la- dy like Like yours M'la- dy like Like yours M'la- dy like
--0-----------0-----------0-----|-0-----------0-----------0-----|------0-----------0-----------0-|-----0-----------0-----------0-|----------0-----------0---------|---------0-----------0---------|--------------------------0 h 2-|-------------------------0 h 2-|--------------2-----------------|-------------2-----------------|--0-----------------------------|-0-----------------------------| yours yours yours
--3-----------5-----------3-----|-3-----------3-----------3-----|------3-----------3-----------3-|-----3-----------3-----------3-|----------3-----------3---------|---------3-----------3---------|--------------5-----------5-----|-------------3-----------3-----|--------------------------------|-------------------------------|--3-----------------------------|-3-----------------------------| When she'd walk down through the Late at night when she Screa- ming out when we'd
--2-----------2-----------2-----|-0-----------0-----------0-----|------3-----------3-----------3-|-----3-----------3-----------3-|----------3-----------3---------|---------3-----------3---------|--------------2-----------2-----|-------------0-----------0-----|--------------------------------|-------------------------------|--3-----------------------------|-3-----------------------------| garden in the mor- ning a- fter it thought that no one was wa- tching at ride through the warm wind down by the
--0-----------0-----------0-----|-0-----------0-----------0-----|------0-----------0-----------0-|-----0-----------0-----------0-|----------0-----------0---------|---------0-----------0---------|--------------------------0 h 2-|-------------------------0 h 2-|--------------2-----------------|-------------2-----------------|--0-----------------------------|-0-----------------------------| rains all On the wall bay Yes- terday
(3/4)--5-----------5---------|-3-----------3---------|------3-----------3-----|-----3-----------3-----|----------3-----------3-|---------3-----------3-|--------------5---------|-------------3---------|------------------------|-----------------------|--3---------------------|-3---------------------| Peacocks wandered Aim- less- ly La- la- la- la- la- la- la- la- Seagulls circled End- less- ly
--5-----------5---------|-3-----------3---------|------3-----------3-----|-----3-----------3-----|----------3-----------3-|---------3-----------3-|--------------5---------|-------------3---------|------------------------|-----------------------|--3---------------------|-3---------------------| Un- derneath an O- range tree La- la- la- la- la- la- la- la I sing in si- lent har- mo- ny
(7/4)--0-----------0-----------0-----------0-----------0-----|------0-----------0-----------0-----------0-----------0-|----------0-----------0-----------0-----------0---------|--------------------------------------------------0-----|--------------------------------------2-----------------|--7-----------5-----------3-----------------------------|
--0-----------0-----------0-----------0-----------0-----|------0-----------0-----------0-----------0-----------0-|----------0-----------0-----------0-----------0---------|--------------------------------------------------0-----|--------------------------------------2-----------------|--7-----------5-----------3-----------------------------| Why can't she see She shall be We shall be
--0-----------0-----------0-----------0-----------0-----|-----|------0-----------0-----------0-----------0-----------0-|-.12-|----------0-----------0-----------0-----------0---------|-.12-|--------------------------------------------------0-----|-.12-|--------------------------------------2-----------------|-----|--7-----------5-----------3-----------------------------|-----| me ? free free
BRIDGE(4/4)--0-----------0-----------0-----|-0-----------0-----------0-----|------0-----------0-----------0-|-----0-----------0-----------0-|----------6-----------6---------|---------6-----------6---------|--------------------------7-----|-------------------------7-----|--------------7-----------------|-------------7-----------------|--7-----------------------------|-7-----------------------------|
--0-----------0-----------0-----|-0-----------0-----------0-----|------0-----------0-----------0-|-----0-----------0-----------0-|----------6-----------6---------|---------6-----------6---------|--------------------------7-----|-------------------------7-----|--------------7-----------------|-------------7-----------------|--7-----------------------------|-7-----------------------------|
--0-----------0-----------0-----|-0-----------0-----------0-----|------0-----------0-----------0-|-----0-----------0-----------0-|----------6-----------6---------|---------6-----------6---------|--------------------------7-----|-------------------------7-----|--------------7-----------------|-------------7-----------------|--7-----------------------------|-7-----------------------------| She turns her gaze
--0-----------0-----------0-----|-0-----------0-----------0-----|------0-----------0-----------0-|-----0-----------0-----------0-|----------4-----------4---------|---------4-----------4---------|--------------------------5-----|-------------------------5-----|--------------5-----------------|-------------5-----------------|--5-----------------------------|-5-----------------------------| Down the slope to the har-
--0-----------0-----------0-----|-0-----------0-----------0-----|------0-----------0-----------0-|-----0-----------0-----------0-|----------6-----------6---------|---------6-----------6---------|--------------------------7-----|-------------------------7-----|--------------7-----------------|-------------7-----------------|--7-----------------------------|-7-----------------------------| bor where I lay
--0-----------0-----------0-----|-0-----------0-----------0-----|------0-----------0-----------0-|-----0-----------0-----------0-|----------0-----------0---------|---------0-----------0---------|--------------------------0 h 2-|-------------------------0 h 2-|--------------2-----------------|-------------2-----------------|--0-----------------------------|-0-----------------------------| an- chored
--0-----------0-----------0-----|-0-----------0-----------0-----|------0-----------0-----------0-|-----0-----------0-----------0-|----------0-----------0---------|---------0-----------0---------|--------------------------0 h 2-|-------------------------0 h 2-|--------------2-----------------|-------------2-----------------|--0-----------------------------|-0-----------------------------| for a day
Tap to rate this tab
 
# A B C D E F G H I J K L M N O P Q R S T U V W X Y Z