---------------------------------------------------------------------------
			Doctor - Cute Is What We Aim For
---------------------------------------------------------------------------
Tabbed by: Michael Villalon
Email: ElementalAwareness8@hotmail.com

Tuning: Standard

INTRO

Guitar 1|----------------------------------------------------||----------------------------------------------------||---------3-----5---3--------------------------------||---5-5-5---5-3---5---5------------------------------||----------------------------------------------------||----------------------------------------------------|x4
VERSE
Guitar 1|----------------------------------------------------||----------------------------------------------------||---------3-----5---3--------------------------------||---5-5-5---5-3---5---5------------------------------||----------------------------------------------------||----------------------------------------------------|x8
Guitar 2|-----------------------------------------------------||--10\----10\----10\----10------8---------------------||--10\----10\----10\--------10----7-------------------||-----------------------------------------------------||-----------------------------------------------------||-----------------------------------------------------|x2
INTERLUDE
Guitar 1|------------------------------------------||----------0~------------0~----------------||--7~--5~--0~----3~--5~--0~----------------||--5~--5~--5~----3~--5~--5~----------------||--5~--3~--2~----5~--3~--2~----------------||------------------------------------------|
Guitar 2 (This is optional, sounds good)|-------------------------------------||-------------------------------------||--7-5-5\4---3-5-5\4------------------||--x-x-x-x---x-x-x-x------------------||--5-3-3\2---1-3-3\2------------------||-------------------------------------|
CHORUS
Guitar 1 & 2The notes on the LOW E string donít really have to be played but sounds better.|-------------------------------------------------------||-------------------------------------------------------||---77777777--1010101010101010--55555555-55555555-------||---55555555---8-8-8-8-8-8-8-8--55555555-55555555-------||---55555555---8-8-8-8-8-8-8-8--33333333-33333333-------||---33333333---6-6-6-6-6-6-6-6--33333333-33333333-------|
|-----------------------------------------------------||-----------------------00000000-00000000-------------||---77777777--55555555--00000000-00000000-------------||---55555555--55555555--55555555-55555555-------------||---55555555--33333333--22222222-22222222-------------||---33333333--33333333--33333333-33333333-------------|
|-------------------------------------------------------||-------------------------------------------------------||---77777777--1010101010101010--55555555-55555555-------||---55555555---8-8-8-8-8-8-8-8--55555555-55555555-------||---55555555---8-8-8-8-8-8-8-8--33333333-33333333-------||---33333333---6-6-6-6-6-6-6-6--33333333-33333333-------|
|--------------------------------||-----------------0~-------------||---7~-----5~-----0~-------------||---5~-----5~-----5~-------------||---5~-----3~-----2~-------------||---3~-----3~-----3~-------------|
VERSE
Guitar 1|----------------------------------------------------||----------------------------------------------------||---------3-----5---3--------------------------------||---5-5-5---5-3---5---5------------------------------||----------------------------------------------------||----------------------------------------------------|x8
Guitar 2 (Comes in when guitar 1 plays the 5th to 8th time)|-----------------------------------------------------||--10\----10\----10\----10------8---------------------||--10\----10\----10\--------10----7-------------------||-----------------------------------------------------||-----------------------------------------------------||-----------------------------------------------------|x1
INTERLUDE
Guitar 1|------------------------------------------||----------0~------------0~----------------||--7~--5~--0~----3~--5~--0~----------------||--5~--5~--5~----3~--5~--5~----------------||--5~--3~--2~----5~--3~--2~----------------||------------------------------------------|
Guitar 2 (Again, optional)|-------------------------------------||-------------------------------------||--7-5-5\4---3-5-5\4------------------||--x-x-x-x---x-x-x-x------------------||--5-3-3\2---1-3-3\2------------------||-------------------------------------|
CHORUS
Guitar 1 & 2Again, the notes on the LOW E string donít have to be played|-------------------------------------------------------||-------------------------------------------------------||---77777777--1010101010101010--55555555-55555555-------||---55555555---8-8-8-8-8-8-8-8--55555555-55555555-------||---55555555---8-8-8-8-8-8-8-8--33333333-33333333-------||---33333333---6-6-6-6-6-6-6-6--33333333-33333333-------|
|-----------------------------------------------------||-----------------------00000000-00000000-------------||---77777777--55555555--00000000-00000000-------------||---55555555--55555555--55555555-55555555-------------||---55555555--33333333--22222222-22222222-------------||---33333333--33333333--33333333-33333333-------------|
|-------------------------------------------------------||-------------------------------------------------------||---77777777--1010101010101010--55555555-55555555-------||---55555555---8-8-8-8-8-8-8-8--55555555-55555555-------||---55555555---8-8-8-8-8-8-8-8--33333333-33333333-------||---33333333---6-6-6-6-6-6-6-6--33333333-33333333-------|
CHORUS 2nd PART
Guitar 1|--------------------------------||-----------------0~-------------||---7~-----5~-----0~-------------||---5~-----5~-----5~-------------||---5~-----3~-----2~-------------||---3~-----3~-----3~-------------|
Guitar 2
[Hold this note until the next part comes in where Shaant sings ďIíll Be, Iíll be...Ē]|-----------------3~---------------||-----------------0~---------------||---7~-----5~-----0~---------------||---5~-----5~----------------------||---5~-----3~----------------------||---3~-----3~----------------------|
BRIDGE
Guitar 2|--3~------5-6-10-8~--10-6~-----------||-------------------------------------||-------------------------------------||-------------------------------------||-------------------------------------||-------------------------------------| x3
Guitar 1Comes is when Guitar 2 plays BRIDGE 2nd and 3rd time|-------------------------------------||-------------------------------------||--7~----7~---10-10-10~----8~---------||--5~----5~---10-10-10~----8~---------||--5~----5~----8--8--8~----6~---------||-------------------------------------|
|-------------------------------------||-------------------------------------||--7-7---7-7---10-10-10~----8~--------||--5-5---5-5---10-10-10~----8~--------||--5-5---5-5----8--8--8~----6~--------||-------------------------------------|
INTERLUDE
Guitar 1|------------------------------------------||----------0~------------------------------||--7~--5~--0~----3~--5~--------------------||--5~--5~--5~----3~--5~--------------------||--5~--3~--2~----5~--3~--------------------||------------------------------------------|
CHORUS
Guitar 1 & 2Again, the notes on the LOW E string donít have to be played|-------------------------------------------------------||-------------------------------------------------------||---77777777--1010101010101010--55555555-55555555-------||---55555555---8-8-8-8-8-8-8-8--55555555-55555555-------||---55555555---8-8-8-8-8-8-8-8--33333333-33333333-------||---33333333---6-6-6-6-6-6-6-6--33333333-33333333-------|
|-----------------------------------------------------||-----------------------00000000-00000000-------------||---77777777--55555555--00000000-00000000-------------||---55555555--55555555--55555555-55555555-------------||---55555555--33333333--22222222-22222222-------------||---33333333--33333333--33333333-33333333-------------|
|--------------------------------------------------||--------------------------------------------------||---7-7-7-7--10-10-10-10---5-5-5-5--5-5-5-5--------||---5-5-5-5---8--8--8--8---5-5-5-5--5-5-5-5--------||---5-5-5-5---8--8--8--8---3-3-3-3--3-3-3-3--------||---3-3-3-3---6--6--6--6---3-3-3-3--3-3-3-3--------|
|--------------------------------||-----------------0~-------------||---7~-----5~-----0~-------------||---5~-----5~-----5~-------------||---5~-----3~-----2~-------------||---3~-----3~-----3~-------------|
OUTRO Guitar 1PALM MUTE|----------------------------------------------------||----------------------------------------------------||---------3-----5---3--------------------------------||---5-5-5---5-3---5---5------------------------------||----------------------------------------------------||----------------------------------------------------|x4
PLAY NORMAL, SAME AS INTRO/VERSE|----------------------------------------------------||----------------------------------------------------||---------3-----5---3--------------------------------||---5-5-5---5-3---5---5------------------------------||----------------------------------------------------||----------------------------------------------------|x4
| / slide up | \ slide down | h hammer-on | p pull-off | ~ vibrato | + harmonic | x Mute note ============================================================================
Tap to rate this tab
 
# A B C D E F G H I J K L M N O P Q R S T U V W X Y Z