Dave Matthews Band - Pig tab version 1

#-----------------------------PLEASE NOTE-------------------------------------#
#This OLGA file is the author's own work and represents their interpretation  #
#of the song. You may only use this file for private study, scholarship, or   #
#research. Remember to view this file in Courier, or some other monospaced    #
#font. See http://www.olga.net/faq/ for more information.                     #
#-----------------------------------------------------------------------------#

Date: Thu, 3 Aug 2000 22:43:20 -0400
From: "Scott Taylor" 
Subject: m/matthews_dave_band/pig.tab

"Pig"

from Dave Matthews Band
Before These Crowded Streets


IntroFigure 1---------------- --------------------------- ----------------4------4-4- -(4)----------2------2---4- -(4)--------------0------2- -(2)--------0-------------- -----------
play Figure 1 - 3 more times ....oh, isn't it strange.... Verse 1 ......how we move our lives.... play Figure 1 - 4 times then Figure 1 (Dave) - 7 times with Figure 2 - 7 times
Tim--------------- ------------------------------ ------------------------------ ----------------------2--2--4- --4--4---4--2---2-----4-----2- --2--2---2------4--4---------- ---------------
then
Dave---------------- ------------------------------- --------------------4------4-4- -4--4----4--------2------2---4- -4--4----4------------0------2- -2--2--2-2--0---0-------------- ---------------
Tim---------------- --------0---------------------- ------0------------------------ ----------------------2--2---4- -(4)------------2-----4------2- -(2)------------4-4------------ ---------------
Pre-Chorus This love will open the world......
Figure 3------------ -----------2---5------ -----------2---4------ -----------2---2------ -4---------0---------- -4-------------4----2- -2--------
play Figure 3 - 2 more times ...Don't burn the day.....
-------------------------------------(4)---------(4)---------(2)--------
play Figure 1 - 4 times with
TimFigure 4 - 2 times----------------- ------ ------------------ -----0------------2------- ------ -------------2---- ---0--------1-------4-2-4- -(4)-- -----1-(2)-4---4-- --------------4-2-------4- -(4)-- ---4----2------4-- ------------------------2- -(2)-- ---------------2-- ----------0--------------- ------ -0---------------- ---------
Verse 2 Is this not enough?......... play Figure 1 with Figure 2 - 4 times play Figure 1 - 4 times with Figure 4 - 2 times Pre-Chorus Just love will open our eyes...... play Figure 3 - 3 times ...Don't burn the day.....
-------------------------------------(4)---------(4)---------(2)--------
play Figure 1 - 3 times with Figure 4 - 1 1/2 times then
Dave----------------3- --3-------------2-----------------3- --3----2----2---3------4-------4--0- --0----2----2---4----2-------2----0- --0----2----2---4----------0------2- --2----0----0---2--0--------------3- --3---------------
Tim----------------3- --3-------------2------------2----3- --3----2----2---3------1---4---0--0- --0----2----2---4----4---2--------0- --0----2----2---4-----------------2- --2----0----0---2--0--------------3- --3---------------
Chorus ....my brother, shake up your bones...... Figure 5
-2-----3-- --------- ---2---3-- ------2---3--3--3-- --2---3-- ---3---3-- --2---3---4--2--0-- --2---2-- ---4---0-- --2---4---4--0--0-- --2---0-- ---4---0-- --2---4---2-----2-- --0------ ---2---2-- --0---2------2--3-- ------2-- -------3-- ---------
play Figure 5 - 2 more times
-2-----3-- --------- ---2-------3--3--3-- --2---3-- ---3-------4--2--0-- --2---2-- ---4-------4--0--0-- --2---0-- ---4-------2-----2-- --0------ ---2----------2--3-- ------2-- --------4-
Bridge ...Love......
Figure 6----- ----- ----- -------5--- -5--- -5--- -5-----4--- -4--- -4--- -3-----2--- -2--- -4--- -4--------- ----- ----- -------4--- -3--- -2--- -2--4-
play Figure 6 - 2 more times
----- ----- -------- -----5--- -5--- -5----5- -----4--- -4--- -4----3- -----2--- -2--- -4----4- --------- ----- -------- -----4--- -3--- -2----2- ----
play Figure 1 - 4 times with Figure 4 - 2 times Verse 3 Look here we are on this starry night..... play Figure 1 - 4 times with Figure 4 - 2 times Pre-Chorus What point could there be...... play Figure 3 - 8 times ...Don't burn the day.....
-------------------------------------(4)---------(4)---------(2)--------
play Figure 1 - 3 times with Figure 4 - 1 1/2 times
Dave----------------3- --3-------------2-----------------3- --3----2----2---3------4-------4--0- --0----2----2---4----2-------2----0- --0----2----2---4----------0------2- --2----0----0---2--0--------------3- --3---------------
Tim----------------3- --3-------------2------------2----3- --3----2----2---3------1---4---0--0- --0----2----2---4----4---2--------0- --0----2----2---4-----------------2- --2----0----0---2--0--------------3- --3---------------
Chorus ....my brother, shake up your bones...... Figure 5
-2-----3-- --------- ---2---3-- ------2---3--3--3-- --2---3-- ---3---3-- --2---3---4--2--0-- --2---2-- ---4---0-- --2---4---4--0--0-- --2---0-- ---4---0-- --2---4---2-----2-- --0------ ---2---2-- --0---2------2--3-- ------2-- -------3-- ---------
play Figure 5 - 2 more times
-2-----3-- --------- ---2-------3--3--3-- --2---3-- ---3-------4--2--0-- --2---2-- ---4-------4--0--0-- --2---0-- ---4-------2-----2-- --0------ ---2----------2--3-- ------2-- --------4-
Bridge ...Love......
Figure 6----- ----- ----- -------5--- -5--- -5--- -5-----4--- -4--- -4--- -3-----2--- -2--- -4--- -4--------- ----- ----- -------4--- -3--- -2--- -2--4-
play Figure 6 and fade The End Scott Taylor School of Music The Florida State University http://www.geocities.com/sequenzax AOL IM: tromba1B "Eat, drink, and be merry, for tomorrow we shall die." - Epicurus
Tap to rate this tab
 
# A B C D E F G H I J K L M N O P Q R S T U V W X Y Z