Dead Kennedys - Holiday In Cambodia tab

Tabbed By: Jon Clarke (Multiplayerjon, OmfgJon, Pickled Fat, Dead Jon)
Email: Jonathan.thetrooper@gmail.com
Version: Guitar Hero 3


Okay I know a Lot of people wants the GUITAR HERO 3 version of the song Holiday in
but i thought i had it... Sadly i just played it... i looked at the rating and i wanted a
Tab... I could just say This is MY Version of this song... So GuitaPlaya... first of all 
sounds like a hip hop guy-type name and thats for pointing out that i needed to

I Decided to tab it... I can't believe I play it like a million times over and over again.

Here we go:


Sound effects: echo, Pitch Thingy, Flanger, Any more crazy things?(This is just a Intro Type thing don't rate on this)|-----------------------------------------------------------------||-----------------------------------------------------------------||------1212121212121212121212121414141414141414141415151515151515-||-----------------------------------------------------------------||-0---------------------------------------------------------------||---0-------------------------------------------------------------|
|-------------------------------------------------|----------------||-------------------------------------------------|----------------||-171717171717171717171717171717171919191919191919|-22-19-19-19-19-||-------------------------------------------------|----------------|x2|-------------------------------------------------|----------------||-------------------------------------------------|----------------|
(A lot)|----------------------------------------------------------2121212121-22---||---------------------------191919191919191921212121212121-----------------||-19191921212121212222222222-----------------------------------------------||--------------------------------------------------------------------------||--------------------------------------------------------------------------||--------------------------------------------------------------------------|
*I think it's a Slide over the Pickups|--21\--%-/-%----------%-?*-%-x------|----------------||--21\--%-/-%-0-0-0-00-%-?*-%--x-----|----------------||--21\--%-/-%----------%-?*-%---x----|1414141414141414||--21\--%-/-%----------%-?*-%----x---|----------------||--21\--%-/-%----------%-?*-%-----x--|1212121212121212||--21\--%-/-%----------%-?*-%------x-|----------------|
Now THIS you can Rate on!Pre-VerseEcho|-------------------------||-------------------------||--14\-8-10-9--55-4-12-11-||-------------------------||--12\-6-8--7--33-2-10-9--|x2|-------------------------|
Verse:
|---------------||---------------||---------------||---------------||-3332221110000-|x2|---------------|
|--------------||--------------||--------------||--------------||-333222110000-|x2|--------------| PM```````````
Pre-Chorus 1
|-----7---------10-||---7--7-----11----|x4|-9-----7-12-------||------------------||------------------||------------------|
Pre-Chorus 2
|----------------------------------------------------------------||----------------------------------------------------------------||-1212121212121212121212-101010101010101010-55555-10101010-77777-|x2|----------------------------------------------------------------||----------------------------------------------------------------||----------------------------------------------------------------|
Pre-Chorus 3If you Want to play it like guitar hero; double the Notes! Itís harder :(|---5----7------8-----5--||--6-6--8-8---10-10--6-6-||-7----9----10------7----|x2|------------------------||------------------------||------------------------|
Chorus 2nd Time Only|----------------------------------------| |-131313131313||----------------------------------------| |-131313131313||----------------------------------------| |-------------||----------------------------------------| |-------------||-7--77-10-10-12-1212-10-10-7-10-12-1212-| |-------------||-5--55-8--8--10-1010-8--8--5-8--10-1010-|x2 |-------------|
Pre-VerseEcho|-------------------------||-------------------------||--14\-8-10-9--55-4-12-11-||-------------------------||--12\-6-8--7--33-2-10-9--|x2|-------------------------|
Verse:
|---------------||---------------||---------------||---------------||-3332221110000-|x2|---------------|
|--------------||--------------||--------------||--------------||-333222110000-|x2|--------------| PM```````````
Pre-Chorus 1
|-----7---------10-||---7--7-----11----|x4|-9-----7-12-------||------------------||------------------||------------------|
Pre-Chorus 2
|----------------------------------------------------------------||----------------------------------------------------------------||-1212121212121212121212-101010101010101010-55555-10101010-77777-|x2|----------------------------------------------------------------||----------------------------------------------------------------||----------------------------------------------------------------|
Pre-Chorus 3If you Want to play it like guitar hero; double the Notes! Itís harder :(|---5----7------8-----5--||--6-6--8-8---10-10--6-6-||-7----9----10------7----|x2|------------------------||------------------------||------------------------|
Chorus 2nd Time Only|----------------------------------------| |-131313131313||----------------------------------------| |-131313131313||----------------------------------------| |-------------||----------------------------------------| |-------------||-7--77-10-10-12-1212-10-10-7-10-12-1212-| |-------------||-5--55-8--8--10-1010-8--8--5-8--10-1010-|x2 |-------------|
1st SoloEcho!!! (This is a Definite for The GUitar HeroIII Solo) (I 5x10to the Millionith POWER!!![====x2=======][===========x2=============]|-13-12-11-10-|---------------------------||-13-12-11-10-|---------------------------||-13-12-11-10-|-9-9-9-9-11---9-9-9-9-11---||-------------|------------7------------8-||-------------|---------------------------||-------------|---------------------------|
[====nines===][========tens========][==elevens============][=====Tweleves=]|--------------------------------------------------------------------------||--------------------------------------------------------------------------||-9-999999999910-1010101010101010101011-1111111111111111111112-121212121212||--------------------------------------------------------------------------||--------------------------------------------------------------------------||--------------------------------------------------------------------------|
[Tweleves][==13s===============][============fourteens=====================]|--------------------------------------------------------------------------||--------------------------------------------------------------------------||1212121213-1313131313131313131314-1414141414141414141414141414141414141414||--------------------------------------------------------------------------||--------------------------------------------------------------------------||--------------------------------------------------------------------------|
[==========x2=============][===x4====][=Forth=time=only]|-------------------------|----------|------------------||-------------------------|----------|------------------||--14\-8-10-9--55-4-12-11-|-6-8-10-8-|-6666666666666666-||-------------------------|----------|------------------||--12\-6-8--7--33-2-10-9--|-4-6-8--6-|-4444444444444444-||-------------------------|----------|------------------|\
[========================x2======================================]|----------------------------------------------------------------||-1212121212121212121212-101010101010101010-55555-10101010-77777-||----------------------------------------------------------------||----------------------------------------------------------------||----------------------------------------------------------------||----------------------------------------------------------------|End Solo
|-----------------------------------------------------------||-----------------------------------------------------------||-----------------------------------------------------------||-----------------------------------------------------------||-7-777777-10-101010101010-12-1212121212-15151515151515-19\-||-5-555555-8--8-8-8-8-8-8--10-1010101010-13131313131313-19\-|
2nd Solo A.k.a Slide Solo A.k.a The Pol Pot Solo Use a Slide or A Wammy Bar (Going up and slightly down) This is Used in That live CD they released but i cant get my Hands on the name
|-------------------///------------------------------------||-------------------///-11---11---11-----------------------||-0///2///4///5////-///----9----9----9-9\8\7\6\5\4\3\2\1\0-||-------------------///------------------------------------||-------------------///------------------------------------||-------------------///------------------------------------|
Chorus 2nd Time Only|----------------------------------------| |-131313131313||----------------------------------------| |-131313131313||----------------------------------------| |-------------||----------------------------------------| |-------------||-7--77-10-10-12-1212-10-10-7-10-12-1212-| |-------------||-5--55-8--8--10-1010-8--8--5-8--10-1010-|x2 |-------------|
Ending last two Notes:
|------||------||------||------||-10-7-||-8--5-|
Thanks +--------------------------------------------------------+
| Congrats! You have finished reading this whole tab! || Now Wasn't that Fun! || Now you can show off to your friends || 'Cause that's what i did and i feel great!!- Jon Clarke|+--------------------------------------------------------+
Key: /:Slide Up \:Slide Down ?:Unknown Note ///:Slider: Massive slide Maybe over Pickups [===]: Area in which something is repeated or a note to player ``or PM: Palm Mute %: Rest x: Harmonic or Rake Comments? Questions? Post them on the tab or Email me At Jonathan.thetrooper@gmail.com Listen to Pickled Fat and Placid Crate (a funny band) Listen to Dead Jon (Good Guitars) Updated on: May 19th: Chords on Solo, Intro. More Intro Text... Boring!
Tap to rate this tab
 
# A B C D E F G H I J K L M N O P Q R S T U V W X Y Z