Paper Bag tab with lyrics by Dear And The Headlights - Easy chords and tabs for guitar

Dear And The Headlights – Paper Bag tab

This is an acoustic interpretation of this song that sounds pretty much the same as the 
but with a few substitutions.

Tune guitar half-step down

Intro:
0.00-0.34

Eb------------------------------------------------------|Bb------------------------------3-----3-----3-----3-----|Gb------2-----2-----2-----2-----------------------------|Db------------------------------------------------------| X8Ab---------------------------2-----2-----2-----2--------|Eb---2-----2-----2-----2--------------------------------|
0.34-0.44---------------------------------------------------------|------5-----5-----5-----5--------------------------------|------------------------------4-----4-----4-----4--------|---------------------------------------------------------| X2---3-----3-----3-----3-----------------------------------|---------------------------3-----3-----3-----3-----------|
(Then other instruments play, but I substitute this for the acoustic guitar:) 0.44-0.56
--------------------------------------------------------|--------------------------------------------------------|-------3-----3----------3-----4-----4--------4----------|--------------------------------------------------------|--------------------------------------------------------|----2-----2-------2--2-----3-----3-----3--3-------------|
------------------------------------------------------------------------|------------------------------------------------------------------------|--------3-----3----------3-----4--------4--------4-----4--------4-------|----------------------------------0--------0--------------0--------0----|------------------------------------------------------------------------|-----2-----2-------2--2-----3--------3--------3-----3--------3--------3-|
0.56-1.17
-------------------------------------------------------|-------3-----3-----3-----3-----8-----8-----8-----8-----|-------------------------------------------------------|-------------------------------------------------------|----2-----2-----2-----2-----7-----7-----7-----7--------|-------------------------------------------------------|
-------------------------------------------------------|-------7-----7-----7-----7-----------------------------|-------------------------------4-----4-----4-----4-----|-------------------------------------------------------|----5-----5-----5-----5--------------------------------|----------------------------3-----3-----3-----3--------|
-------------------------------------------------------|-------3-----3-----3-----3-----8-----8-----8-----8-----|-------------------------------------------------------|-------------------------------------------------------|----2-----2-----2-----2-----7-----7-----7-----7--------|-------------------------------------------------------|
-------------------------------------------------------|-------7-----7-----7-----7-----------------------------|-------------------------------4-----4-----4-----4-----|-------------------------------------------------------|----5-----5-----5-----5--------------------------------|----------------------------3-----3-----3-----3--------|
1.17-1.29
--------------------------------------------------------|--------------------------------------------------------|-------3-----3----------3-----4-----4--------4----------|--------------------------------------------------------|--------------------------------------------------------|----2-----2-------2--2-----3-----3-----3--3-------------|
------------------------------------------------------------------------|------------------------------------------------------------------------|--------3-----3----------3-----4--------4--------4-----4--------4-------|----------------------------------0--------0--------------0--------0----|------------------------------------------------------------------------|-----2-----2-------2--2-----3--------3--------3-----3--------3--------3-|
1.29-1.48
------------------------------------------------------|------------------------------3-----3-----3-----3-----|------2-----2-----2-----2-----------------------------|------------------------------------------------------| X3---------------------------2-----2-----2-----2--------|---2-----2-----2-----2--------------------------------|
-------------------------------------------------------|------5-----5-----5-----5------------------------------|------------------------------4-----4-----4-----4------|-------------------------------------------------------|---3-----3-----3-----3---------------------------------|---------------------------3-----3-----3-----3---------|
1.48-2.01
--------------------------------------------------------|--------------------------------------------------------|-------3-----3----------3-----4-----4--------4----------|--------------------------------------------------------|--------------------------------------------------------|----2-----2-------2--2-----3-----3-----3--3-------------|
------------------------------------------------------------------------|------------------------------------------------------------------------|--------3-----3----------3-----4--------4--------4-----4--------4-------|----------------------------------0--------0--------------0--------0----|------------------------------------------------------------------------|-----2-----2-------2--2-----3--------3--------3-----3--------3--------3-|
======================================================================== 2.01-2.41
-------------------------------------------------------|-------3-----3-----3-----3-----8-----8-----8-----8-----|-------------------------------------------------------|-------------------------------------------------------|----2-----2-----2-----2-----7-----7-----7-----7--------|-------------------------------------------------------|
-------------------------------------------------------|-------7-----7-----7-----7-----------------------------|-------------------------------4-----4-----4-----4-----|-------------------------------------------------------|----5-----5-----5-----5--------------------------------|----------------------------3-----3-----3-----3--------|
REPEAT THIS SECTION FOUR TIMES =========================================================================== Now you can keep repeating the section above, or you can break into chords (which I like better) 2.41-END
Here are the chords:---2--------7--------5--------3--------------------------|---3--------8--------7--------3--------------------------|---4--------9--------7--------4--------------------------|---4--------9--------7--------5--------------------------|---2--------7--------5--------5--------------------------|---2--------7--------5--------3--------------------------|
Thats it! Enjoy!
Please rate this tab:
x1.0