Federico Moreno Torroba - Sonatina In A - 1 Allegretto tab

Sonatina in A, I Allegretto - Frederico Moreno-Torroba (1891-1982)
1st version - by Al M Parente, measures indicated, shows hammers & pull-offs
2nd version - by The_S, maximum line length 80 chars
******************************************************************************

From: jack.x@tiscalinet.it
Subject: Sonatina I - F. Moreno Torroba
Date: Thu, 27 Feb 2003 22:48:04 -0000

Sonatina

I

F. Moreno Torroba

E|------9-9-9---10^9-7--9---||---5-----------------------|-----9-9-9---10^9-7--5------|B|---5---------------7--9---||---------------------------|----------------------------|G|---6---------------7--9---|*---6-----------------------|------------------7--6------|D|---7----------------------|*---------------------------|----------------------------|A|---7----------------------||------7^9-7--7^9-7---------|---0------------------------|E|---5------------------0---||---5------------------0----|---------------------0------|
E|---7----------------------|--12-14-12^14^12-10-9-10-12-|----9-----8-10---7---8^7----|B|--------------------------|----------------------------|------10--------------------|G|---7----------------------|----------------------------|----9-----8------7----------|D|------4^6-4---4^6-4-------|----------------------------|-----------------6----------|A|---0-----------------7----|----------------------------|----0-----8------7----------|E|--------------------------|-0--------------------------|----------------------------|
E|----5---------------------|----------------------------|----------------------------|B|--------------------------|----------------------------|-----5^2-5---7-5------------|G|----6---------------------|----------------------------|-----4^0-4-------7--6-------|D|--------------------------|----------------------------|----------------------------|A|-------7^9-7--7^9-7-------|---------7^9-7--7^9-7-------|---0------------------------|E|----5------------------0--|----5--------------------0--|----------------------------|
E|---------------7----------|----------------------------|---------------7----10------|B|---------0---7---7--------|-----5^2-5---7-5------------|---------0---7---7----------|G|---7-------7--------------|-----4^0-4-------7--6-------|---7-------7----------------|D|-------4-----------7------|----------------------------|-------4--------------------|A|-----5--------------------|---0------------------------|-----5----------------------|E|--------------------------|----------------------------|----------------------------|
E|-----10-10-10-12^10--9-7--|----9-----8-10---7---8^7----|----5-----------------------|B|--7-----------------------|------10--------------------|----------------------------|G|--7------------------9-7--|----9-----8------7----------|----6-----------------------|D|--7-----------------------|-----------------6----------|----------------------------|A|--9-----------------------|----0-----8------7----------|-------7^9-7--7^9-7---------|E|--7-----------------------|----------------------------|----5------------------0----|
E|------------5-------------|--------2-------------------|--------2-------------------|B|------------5-------------|----2-------5---2---4^0-----|----2-------5---2---4^0-----|G|------------6-------------|----2-----------------------|----2-----------------------|D|------------7-------------|--------------------4-------|--------------------4-------|A|------0-------------------|----4---------------2-------|----4---------------2-------|E|--------------------------|----2-----------------------|----2-----------------------|
E|-----------2-4-5-4-2-5----|-------9----7----9----------|----7---------------5-------|B|--2--4--5-----------------|------------0---------------|----4---------------2-------|G|--2-----------------------|-------6---------6----------|----4---------------2-------|D|--------------------------|----------------------------|----4-----------6---2-------|A|--------------------------|----------------------------|------------6---------------|E|--2-----------------------|----------------------------|--------4---------------2---|
E|---7--------------5-------|---2---------4---2^4^2------|----------------------------|B|---4--------------2-------|---2--------------------5---|---2/4---5---7---4^5^4--0---|G|---4--------------2-------|---2-----2------------------|----------------------------|D|---4----------6---2-------|------2---------------------|----------------------------|A|----------6---------------|---2------------------------|----------------------------|E|------4---------------2---|----------------------------|----------------------------|
E|--------------------------|----------------------------|---0-1-0-----0-1---5---3----|B|--------------------------|----------------------------|-------0---3-------4--------|G|---1-----------2---5------|-----1-----------2---5------|-------1-----------2--------|D|---------2-----3----------|-----------2-----3----------|-------0--------------------|A|-------2---2---6----------|---------2---2---6----------|-------------------3--------|E|---0----------------------|-----0----------------------|----------------------------|
E|--------------------------|-----------------------12--|----------------------------|B|---5-6-5-----5-6-10---8---|----5---6---5----3---5------|----------------------------|G|-----------7-----8--------|------------7---------------|----------------------------|D|-------6---------7--------|------------6---------------|---0--4-2^4^2---------------|A|-------5------------------|----------------------------|----------------4--5--2-----|E|-----------------8--------|------------7---------------|----------------------------|
__________________________||Seconda volta______________
E|------9-9-9 10^9---7 9----||-----------------------12--|---------10-8---------------|B|-------------------7-9----||----5---6---5---3---5------|----10--------12-10-12------|G|-------------------7-9----*|------------7--------------|----10----------------------|D|--------------------------*|------------6--------------|----------------------------|A|---0----------------------||---------------------------|----------------------------|E|---------------------0----||------------7--------------|----8-----------------------|
E|------------0------|----------0--------|--0------------------|----------------------|B|---8------------6--|--8----------6-8^6-|----------0-----0----|---5/8--7--5---7--8---|G|----------------5--|-------------5-----|--------0------------|---4------------------|D|---------9------7--|--------9----7-----|-----2-------0-------|---5------------------|A|------7------------|-----7-------------|---------------------|---4------------------|E|-------------------|-------------------|---------------------|----------------------|
E|-------------------|---------7 10^7----|-----------------0---|----------------------|B|-10----------------|-------8-----------|--5--8-8-8--10^8---6-|----------------------|G|-9-----------------|-----9-------------|--4------------------|--7-----------2-------|D|-10----------------|--0----------------|--5------------------|--------0--4-----4----|A|----9-9-9-10^9-7-9-|-------------------|--4------------------|-----3----------------|E|-------------------|-------------------|---------------------|----------------------|
E|-10----------------|-------------------|-----1-1-1-3^1---0-1-|----------------------|B|-------------------|-------------------|---------1-------0---|----3-3-3-5^3---1---3-|G|-7-----------------|-------------------|---------2-------0---|--2-------------0-----|D|----0-0-0-2^0------|-------------------|---------------------|--3-------------2-----|A|--------------3-5--|--2---2-3-0---2^0--|---------------------|----------------------|E|-------------------|----3--------------|--3------------------|----------------------|
E|-------------------|-------------------|---4--------7 5^4----|---9------7---5^4-----|B|---0---------------|----0--------------|------5--------------|------6---------------|G|---2----0---2---0--|----2----0----2----|---------------------|----------------------|D|---3----2---3---2--|----3----2----3----|--------6------------|------6---------------|A|-------------------|-------------------|---------------------|----------------------|E|-----3-------------|----3--------------|---7-----------------|---7------------------|
E|--2------4-2^4^2---|-------------------|---------------------|----------------------|B|-----2-----------5-|-2/4-5--7--4^5^4-0-|---------------------|----------------------|G|-------2-----------|-------------------|--1-----------2---5--|--1-----------2---5---|D|-------------------|-------------------|--------2-----3------|--------2-----3-------|A|--2----------------|-------------------|------2---2---6------|------2---2---6-------|E|-------------------|-------------------|--0------------------|--0-------------------|
E|---0----------------------|---2--5---4^5^4-----2-------|----------------------------|B|--------------------------|---3-------------5-----3----|----------------------------|G|---------------4----------|---2------------------------|-------------------4--------|D|---------2--6-------------|----------------------------|-------------2--6-----------|A|------2-------------------|---0------------------------|---------2------------------|E|---0--------------7------|----------------------------|-----0----------------7----|
E|--------------------------|----------------------------|----------------------------|B|---7--10---9^10^9---------|----------------------------|----------------------------|G|---7--------------9-11-7--|-------------------4--------|----------------------------|D|---7----------------------|------------2---6-----------|----------------------------|A|--------------------------|--------2-------------------|----------------------------|E|--------------------------|----0------------------7---|-------------12------------|
E|--------------------------|------9-9-9 10^9---7 9------|---5------------------------|B|--------------------------|-------------------7-9------|----------------------------|G|--------------------------|-------------------7-9------|---6------------------------|D|---0--4-2^4^2-------------|----------------------------|----------------------------|A|----------------4--5--2---|---0------------------------|------7^9-7--7^9-7----------|E|--------------------------|---------------------0------|---5------------------0-----|
E|-----9-9-9---10^9-7--5----|---7------------------------|--12-14-12^14^12-10-9-10-12-|B|--------------------------|----------------------------|----------------------------|G|------------------7--6----|---7------------------------|----------------------------|D|--------------------------|--------4^6-4---4^6-4-------|----------------------------|A|---0----------------------|---0-------------------7----|----------------------------|E|---------------------0----|----------------------------|-0--------------------------|
E|---9-----8-10---7---8^7---|----5-----------------------|----------------------------|B|-----10-------------------|----------------------------|----------------------------|G|---9-----8------7---------|----6-----------------------|----------------------------|D|----------------6---------|----------------------------|----------------------------|A|---0-----8------7---------|--------7^9-7---7^9-7-------|--------7^9-7--7^9-7--------|E|--------------------------|----5--------------------0--|---5--------------------7---|
E|--------------------------|-----------------7----------|----------------------------|B|-----5^2-5---7-5----------|-----------0---7---7--------|-----5^2-5---7-5------------|G|-----4^0-4-------7--6-----|---7---------7--------------|-----4^0-4-------7--6-------|D|--------------------------|---------4-----------7------|----------------------------|A|---0----------------------|------5---------------------|---0------------------------|E|--------------------------|----------------------------|----------------------------|
E|-----------------7----10--|------10-10-10-12^10---9-7--|----9-----8-10---7---8^7----|B|---------0-----7---7------|---7------------------------|------10--------------------|G|--7---------7-------------|---7-------------------9-7--|----9-----8------7----------|D|-------4------------------|---7------------------------|-----------------6----------|A|----5---------------------|---9------------------------|----0-----8------7----------|E|--------------------------|---7------------------------|----------------------------|
E|---5----------------------|--------------5-------------|----------------------------|B|--------------------------|--------------5-------------|-------0--------------------|G|---6----------------------|--------------6-------------|----------2------1----------|D|--------------------------|--------------7-------------|----4--------4-------2------|A|-------7^9-7--7^9-7-------|-------0--------------------|----5------------2----------|E|---5-------------------0--|----------------------------|----7------------0----------|
E|--------------------------|----------------------------|----------------------------|B|-------0------------------|--------------------7-9-----|------12---10---12----------|G|----------2------1--------|-------------6-7-9----------|----------------------------|D|----4--------4-------2----|---4--6-7-9-----------------|----------------------------|A|----5------------2--------|---5------------------------|----------------------------|E|----7------------0--------|---7------------------------|----------------------------|
E|----12------------10------|-----12------------10-------|----7--------9-7^9^7--------|B|----9-------------7-------|-----9-------------7--------|----7-----------------10----|G|----9-------------7-------|-----9-------------7--------|----7-----7-----------------|D|----9---------11--7-------|-----9---------11--7--------|-------7--------------------|A|----------11--------------|-----------11---------------|----7-----------------------|E|-------9--------------7---|--------9--------------7----|----------------------------|
E|-----------------------0--|----------------------------|----------------------------|B|---7/9--10--12 9^10^9-----|----2------------3^6--------|-----2------------3^6-------|G|--------------------------|----------2------3----------|-----------2------3---------|D|--------------------------|-------2-----2---6----------|--------2-----2---6---------|A|--------------------------|----0-----------------------|-----0----------------------|E|--------------------------|----------------------------|----------------------------|
E|---5^6^5-----5-6---10--8--|---5^6^5-----5-7---9--12----|-----17---------------------|B|-------5--8--------9------|-------5--8-----------------|----------------------------|G|-------6-----------7------|-------6--------------------|-----14---------------2-----|D|-------5------------------|-------5--------------------|----------------0--4--------|A|-------------------8------|----------------------------|-------------0--------------|E|--------------------------|----------------------------|----------2-----------------|
E|---5----------------------|---5------------------------|----------------------------|B|--------------------------|---5---5-5-5--7^5--3--5-----|---2------------------------|G|------------------2-------|---6------------------------|------9-9-9---11^9---7-9----|D|------------1--3----------|---7------------------------|----------------------------|A|---------0----------------|---7------------------------|----------------------------|E|------1-------------------|---0------------------------|----------------------------|
E|--------------------------|---------------4--9--|--12-|----------------------------|B|--------------------------|---5--------5--------|------|----------------------------|G|----6--------------6------|---------6-----------|------|----------------------------|D|----------------6---------|------6--------------|------|---2-2-2---4-2-0---2--------|A|----------4--7------------|---------------------|------|----------------------------|E|-------4------------------|---------------------|------|----------------------------|
E|--------------------------|--------------0-----|---5----5----5-----|-------5-------||B|--------------------------|-----------------7--|-------------------|---------------||G|--------------------------|--------2--6--------|--------6----6-----|-------6-------||D|--------------------------|-----2--------------|-------------------|---------------||A|----4-0-4-5---2---4-2-----|--0-----------------|--------7----7-----|-------7-------||E|--------------------------|--------------------|--------5----5-----|-------5-------||
****************************************************************************** ****************************************************************************** Allegretto from Sonatina in A - Frederico Moreno-Torroba (1891-1982) Tabbed by The_S - with the assistance of Powertab Editor for transcription I will soon be transcribing the two other pieces from Sonatina so be patient. note: Where there is a dot above the tab it indicates a hammer-on, pull-off . eg -4---2------is-the-same-as-----4---2h4p2-- ------------------------------------------ ------------------------------------------ ------------------------------------------ ------------------------------------------ ------------------------------------------ ------------------------------------------------------------------------------
|------------------------------------------------||---------------------------------------------5--||---------------------------------------------6--||---------------------------------------------7--||---------------------------------------------7--||---------------------------------------------5--|
|-9-9-9---109-7---9---5--------------------------||-------------7---9------------------------------||-------------7---9---6--------------------------||------------------------------------------------||---------------------0---7-9-7---7-9-7-------0--||-----------------0-----------------------0------|
|-9-9-9---109-7---5---7-----------------------7--||------------------------------------------------||-------------7---6---7-----------------------7--||------------------------------------------------||---------------------0---9-119---911-9---7------||---------------------------------------------0--|
.|-121412--109-10--12--9-------9---10--7---9-7-5--||-------------------------10---------------------||---------------------9-------9-------7-------6--||-------------------------------------6----------||-----------------------------9-------7-------0--||---------------------0--------------------------|
|---------------------5--------------------------||------------------------------------------------||---------------------6--------------------------||------------------------------------------------||-7-9-7---7-9-7-------0---7-9-7---7-9-7-------0--||-----------------0-----------------------0------|
|---------2-0-----------------------7------------||-5-2-5-------3---2---3-----------7---7----------||-4-0-4-----------------------4-7----------------||---------------------------4-------------7------||-------------------------5-------------------0--||------------------------------------------------|
|---------2-0-----------------------7-----10--10-||-5-2-5-------3---2---3-----------7---7-------7--||-4-0-4-----------------------4-7-------------7--||---------------------------4-----------------7--||-------------------------5-------------------9--||---------------------------------------------7--|
|-101010--12109---7---9-------9---10--7---9-7-5--||-------------------------10---------------------||-------------9---7---9-------9-------7-------6--||-------------------------------------6----------||-----------------------------9-------7-------0--||---------------------0---------------0----------|
|---------------------5-------5--||-----------------------------5--||---------------------6-------6--||-----------------------------7--||-7-9-7---7-9-7-------0----------||-----------------0--------------|
|-----2-----------------------2------------------||-2-------5---2---4-------2-------5---2---4------||-2-------------------4---2-------------------4--||-----------------4-----------------------4------||-2---------------2-------2---------------2------||-2-----------------------2----------------------|
|---------0---2---4---5---4---2---5---9-----7-9--||-2---4------------------------------------------||-2-----------------------------------6-----4-6--||------------------------------------------------||------------------------------------------------||-2----------------------------------------------|
|-7---------------5-------7---------------5------||-4---------------2-------4---------------2------||-4---------------2-------4---------------2------||-4-----------6---2-------4-----------6---2------||---------6-----------------------6--------------||-----4---------------2-------4---------------2--|
. .|-2-----------4---2---0--------------------------||-2-----------------------2-/-4---5---7---4---0--||-2-------2--------------------------------------||-----2------------------------------------------||-2----------------------------------------------||------------------------------------------------|
|------------------------------------------------||---------------------1-----------------------1--||-1---------------2-------1---------------2------||---------2-------3---------------2-------3------||-----2-------2---3-----------2-------2---3------||-0-----------------------0----------------------|
. .|-0-------0---1---5---3---0-------0---1---5---3--||-0---3-----------5-----------3-----------5------||-1---------------2-------1---------------2------||-0-----------------------0----------------------||-----------------3-----------------------3------||------------------------------------------------|
. .|-0-------0---12---------------------------------||-----3------------------------------------------||-1----------------------------------------------||-0----------------------------------------------||---------------------5---9---7----------------0-||---------------------------------9---10--7------|
---------------------------------------------------
.|-0-------0---12--12--10--8---------------||-----3-----------10----------12--10--12--||-1---------------10----------------------||-0---------------------------------------||-----------------------------------------||-----------------8-----------------------|
|------------------------------------------------||-8---------------6-------8---------------6---8-6||-------------9---5-------------------9---5------||---------9-------7---------------9-------7------||-----7-----------------------7------------------||------------------------------------------------|
|------------------------------------------------||-5-----------------------5-/-8---7-------7---8--||-------------4-------4---4-----------9----------||---------5---------------5----------------------||-----7-----------5-------0----------------------||------------------------------------------------|
|-5-----------------------------------7---10--7--||-5-------------------------------8--------------||-5---------------------------9------------------||-----4-4-4---5-4-2---4---0----------------------||------------------------------------------------||------------------------------------------------|
|-----3-3-3---5-3-0---2--------------------------||-5-----------------------3----------------------||-4---------------------------------------2------||-5-------------------------------0---4-------4--||-4---------------------------3------------------||------------------------------------------------|
|-10---------------------------------------------||------------------------------------------------||-7----------------------------------------------||------------------------------------------------||-----5-5-5---7-5-4---5---2-------2---3---0---2-0||-----------------------------3------------------|
|-----1-1-1---3-1-0---1--------------------------||---------1-------0-----------3-3-3---5-3-1---3--||---------2-------0-------2-------2-------0------||-------------------------3-------3-------2------||------------------------------------------------||-3----------------------------------------------|
|---------------------------------4---0-------7--||-0-------------------0-------------------0------||-2-------0---2---0---2---0---2------------------||-3-------2---3---2---3---2---3------------------||---------------------------------2--------------||-----3---------------3--------------------------|
|-5---4---9-----------7---5---4---2-----------4--||-------------5-----------------------2----------||-----------------------------------------2------||-----------------6------------------------------||---------------------------------2--------------||---------7--------------------------------------|
. .|-2---0--------------------------||---------2---4---5---7---4---0--||--------------------------------||--------------------------------||--------------------------------||--------------------------------|
|------------------------------------------------||---------------------1-----------------------1--||-1---------------2-------1---------------2------||---------2-------3---------------2-------3------||-----2-------2---3-----------2-------2---3------||-0-----------------------0----------------------|
|-0-----------------------2---5---4---0----------||-----------------0-------3---------------7---3--||-------------1-----------2----------------------||---------2--------------------------------------||-----2-------------------0----------------------||-0------------------(5)-------------------------|
|-------------------------2---5---4---0----------||-----------------0-------3---------------7---3--||-------------1-----------2----------------------||---------2--------------------------------------||-----2-------------------0----------------------||-0------------------(5)-------------------------|
|------------------------------------------------||-----------------0------------------------------||-------------1----------------------------------||---------2--------------------------------------||-----2-------------------5---9---7--------------||-0------------------(5)--------------9---10--7--|
|------------------------------------------------||------------------------------------------------||-----4-----------1-----------4-----------1------||-4-------7---4-------2---4-------7---4-------2--||-5---------------2-------5---------------2------||-7---------------0-------7---------------0------|
|---------------------------------4---7-----5-7--||-------------------------5---7------------------||-------------4---6---7--------------------------||-4---6---7--------------------------------------||-5----------------------------------------------||-7----------------------------------------------|
|-12--------------10------12--------------10-----||-9---------------7-------9---------------7------||-9---------------7-------9---------------7------||-9-----------11--7-------9-----------11--7------||---------11----------------------11-------------||-----9---------------7-------9---------------7--|
. .|-7-----------9---7---5--------------------------||-7-----------------------7---9---10--12--9------||-7-------7-----------------------------------9--||-----7------------------------------------------||-7----------------------------------------------||------------------------------------------------|
|------------------------------------------------||---------------------6-----------------------6--||-6---------------7-------6---------------7------||---------7-------8---------------7-------8------||-----7-------7---8-----------7-------7---8------||-5-----------------------5----------------------|
. .|-5-------5---6---10--8---5-------5---7---9---12-||-5---8-----------10------5---8------------------||-6---------------7-------6----------------------||-5-----------------------5----------------------||-----------------8------------------------------||------------------------------------------------|
|-17----------------------5----------------------||------------------------------------------------||-14------------------2-----------------------2--||-------------0---4-------------------0---3------||---------0-----------------------0--------------||-----2-----------------------1------------------|
|-5----------------------------------------------||-5---5-5-5---7-5-3---5-------5-5-5---7-5-3---5--||-6-----------------------6----------------------||-7----------------------------------------------||-7----------------------------------------------||-0----------------------------------------------|
|-------------------------0-------------------9--||-----------------------------------------9------||-6-------------------6---------------9----------||-----------------6---------------11-------------||---------4---7---------------11-----------------||-----4------------------------------------------|
|-12---------------------------------------------||------------------------------------------------||------------------------------------------------||-----2-2-2---4-2-0---2---------------0----------||-------------------------4---0---4-------2---4-2||------------------------------------------------|
|-----------------0---5---5---5---5--|||-------------2----------------------|||---------2---------------6---6---6--|||-----2------------------------------|||-0-------------------0---7---7---7--|||-------------------------5---5---5--||
Tap to rate this tab
 
# A B C D E F G H I J K L M N O P Q R S T U V W X Y Z