Castles Of Spain Vol 1 - 8 Alcazar De Segovia tab with lyrics by Federico Moreno Torroba - Easy chords and tabs for guitar

Federico Moreno Torroba – Castles Of Spain Vol 1 - 8 Alcazar De Segovia tab

ALCAZAR DE SEGOVIA (LLAMDA)
by Federico Moreno Torroba
Arranged by Andres Segovia
ohdan@mindspring.com

Allegro moderato Q.=72
6/8
  
|-0-0-0---0--|-0-0-0---0--|-0-0-0-----0---||-2-2-2-3-2--|-2-2-2-3-2--|-2-2-2--3----8-||-2-2-2-4-2--|-2-2-2-4-2--|-2-2-2--4------||-------4----|-------4----|--------4------||-0----------|-0----------|-0-----(0)-----||------------|------------|---------------|
|-------------------|-^7-7-7-5----|-^7-7-7-5----||-7h8p7-------------|-^7-------7--|-^7-------7--||-------9-7-9-------|-^7-----5----|-^7-----5----||--------------7--7-|-^7----------|-^7----------||-------------------|-^7-----6----|-^7-----6----||-----------9-(9)---|-^0----------|-^0----------|
|-^7-10-9-7h9p7------|-----------------|-0-0-0---0--||-^7------------10-9-|-7-5-3-3h5p3-2-3-|-2-2-2-3-2--||-^7-----------------|-----------------|-2-2-2-4-2--||-^7-----------------|-----------------|-------4----||-^7-----------------|-----------------|-0----------||-^0-----------------|-----------------|------------|
|-0-0-0---0--|-0-0-0-----0---|-------------------||-2-2-2-3-2--|-2-2-2--3----8-|-7h8p7-------------||-2-2-2-4-2--|-2-2-2--4------|-------9-7-9-------||-------4----|--------4------|--------------7--7-||-0----------|-0-----(0)-----|-------------------||------------|---------------|-----------9-(9)---|
|-7---7-5-10--|-7---7-5-10--|-2-----5-----||-8---8-7-----|-8---8-7-----|---3-----4---||-9---9-7-----|-9---9-7-----|-----2-----5-||-------0-----|-------0-----|-------4-----||-------------|-------------|-2-----------||---9---------|---9---------|-------------|
|-5-2-------------|---4-7--5------||---5-----5---||-2---5-3-2h3p2-0-|---3----5------||---5-----5---||-----------------|---5----6------||---5-----5---||-----------------|---------------||-------------||-----------------|-0-----(0)-----||-----5-7---9-||-0-----0---------|-----------5-7-||-8-----------|
|---5-----5---|---0-----0---|------------------------||---5-----5---|-------------|---10-8-7p5-------------||---5-----5---|---5-----5---|-5----------7p5-4p2-0---||-5-----5-----|-9---7-9---7-|----------------------4-||-----9-----9-|-------------|------------------------||-------------|-------------|------------------------|
|---0-----0---|---2-----------|--------------------------||---0-----0---|---4-----------|---------------5-7-8-7p5--||---0-----0---|---2-----------|---4-5-7-5p4--------------||-------------|---------------|-------------0------------||-2---3-2---3-|-2---3-2-5p3-2-|--------------------------||-------------|---------------|-0------------------------|
|--7---------------------|---------------0-2-3-2p0-||----8-7p5-2-------------|---0-2-3-2p0-------------||------------4-----------|-------------------------||--------------5p2-------|-------------------------||------------------4p2---|-------------4-----------||----------------------3-|-2-----------------------|
To Coda|---7-9-10-9p7---12-9---------------|||---------------------11------------|||-0----------------------12---------|||----------------------------14-----|||--------------9----------------16--|||-----------------------------------||
|-------------|-------------|-----0-------|||-0-----0-----|-0-----0-----|-0-------0-7-|||-------------|-------------|---0---------|||-------------|-----2---2-4-|-------------|||---2-4---4-5-|---5---------|-------0-----|||-------------|-------------|-------------||
|-----5--------|-----7--------------|-----7--------------||---7-----7-10-|---7---10--9h10p9-7-|---7---10--9h10p9-7-||---6-----6----|---7----------------|---7----------------||---7-----7----|--------------------|--------------------||-5-----6------|-7-----(7)----------|-7-----(7)----------||--------------|------------------7-|------------------7-|
|---7-----------|----10------------|---------------||---7-----------|----12------------|---7-7--7--9---||---7-----------|----11------------|---7-7--7------||-------------9-|----------9-11-12-|---7-7--7------||-7---9-11-12---|-11----12---------|-------------7-||---------------|------------------|-0-----(0)-----|
D.C. al Coda|---------------|---7-7-7-9-7-|--9--7-9-7-9-7-|||---7-7--7--9---|---7-7-7-7-7-|--7--7-7-7-7-7-|||---7-7--7------|---7-7-7-7-7-|--7--7-7-7-7-7-|||---7-7--7------|---7-7-7---7-|-----7---7---7-|||-------------7-|-------------|---------------|||-0-----(0)-----|-0-----------|-(0)-----------||
&|---------------|-------------4-||-----------------1---||-0-----(0)---7-|-0-----(0)-----||---4-4-4-4-4-4p2---4-||---------------|---1-1-----1---||-------------0-------||---4-4--2--4---|---2-2--4--2---||-1-------------------||---5-5--4--5---|--------5------||---------------------||---------------|---------------||---------------------|
|-----------------------|---------------------||---2-2-2-2-2--2p=1-4-2-|---1-1-1-1-1---------||-2------------1--------|-------------5p3-7-5-||-1-----------(1)-------|-1-----------4-------||-----------------------|---------------------||-----------------------|---------------------|
|-----------------8-6-|-4-------------------||---9-9-9-9-9-9p8-----|-4-----------------6-||-------------6-------|-5-5-5-5-5-5-5h6-5---||---------------------|-------------5-------||-8-----------6-------|---------------------||---------------------|-4-----------4-------|
|---------------------|-----------------------6-||-------------------4-|-------------------6-4---||---5-5-5-5-5-5h6-5---|---5-5-5-5-5---6-5-------||-4-----------3-------|-2-----------------------||---------------------|-------------6-----------||-4-----------4-------|-4-----------4-----------|
|-4-----------4-------4-6-||-8-------(8)-5--|-8-------(8)-5---||---6p4---4h6---6p4-6-----||----8--8--8--6--|----8--8--8--6---||-------5-----------------||----9--9--9--5--|----9--9--9--5---||-------------------------||---10-10-10--5--|---10-10-10--5---||-------------------------||---10-10-10-----|---10-10-10------||-------------------------||----------------|-----------------|
|---5---------5---|---0-------------|---0-------------||-----5---5---5---|-------------5---|-------------5---||-------5-----5---|-----5---5---5---|-----5---5---5---||-----------------|-------4-----4---|-------4-----4---||-----------------|-7---------5---0-|-7---------5---0-||-5---------7---8-|-----------------|-----------------|
|-----------------|-----------------|-----------------||---5---------5---|---5---------5---|---4---------4---||-----3---3---3---|-----3---3---3---|-----2---2---2---||-------5-----5---|-------5-----5---|-------4-----4---||-5---------3-----|-5---------3-----|-3---------2-----||---------------3-|---------------3-|---------------2-|
|-----------------|---2-----------2-5p4-2-|--------------||---4---------4---|-----3-------3---------|-5-3-2-0------||-----2---2---2---|-------2---2-----------|---------2-1--||-------4-----4---|---------2-------------|--------------||-3---------2-----|-----------------------|--------------||---------------2-|-0---------------------|--------------|
|-----------------||-0-0-0---0--|-3-3-3-1-3--||-----------------||-2-2-2-3-2--|-5-5-5-1-5--||-6-4-2-1h2p1-----||-2-2-2-4-2--|-5-5-5-2-5--||-------------4-3-||-------4----|------------||-----------------||-0----------|------------||-----------------||------------|-3----------|
|-6-6-6-4-6--|-4-4-4-6-8--|-7-7-7-9p=7--5-4-||-7-7-7-4-7--|-4-4-4-6-9--|-9-9-9----9------||-7-7-7-5-7--|-5-5-5-6-8--|-7-7-7----7--6-4-||------------|------------|-----------------||------------|------------|-----------------||-6----------|-4----------|-0-------(0)-----|
|-5-5-5-2-4--|-5-5-5-2-4--|-5-----7-----||-5-5-5-3-3--|-5-5-5-3-3--|---5-----7---||-6-6-6-2-4--|-6-6-6-2-4--|-----6-----7-||------------|------------|-4-----------||-0-----0-0--|-0-----0-0--|-------------||------------|------------|-------7-----|
|---10p9-7----------------|-0-0-0---0--|-0-0-0---0--||----------10-9-7---------|-2-2-2-3-2--|-2-2-2-3-2--||-----------------9-7-6---|-2-2-2-4-2--|-2-2-2-4-2--||-----------------------9-|-------4----|-------4----||-------------------------|-0----------|-0----------||-0-----------------------|------------|------------|
|-0-0-0-----0-2-|-5--5--9p7--|-5------*||-2-2-2--3--2-3-|-5--4----9--|-5------*||-2-2-2--4--2-2-|-2--2----7--|-6------*||--------4----0-|------------|--------*||-0-----(0)-----|-4--3-------|-0------*||---------------|---------0--|--------*|
Please rate this tab:
x1.0