Domani tab with lyrics by Finley - Easy chords and tabs for guitar

Finley – Domani tab

Artist: Finley
Song: Domani
Album: Adrenalina
Tabs by kia

INTRO:

(Guitar 1)

|-0-------------|-0-------------|-0-------------|-0-------------||---2-2-3-2-----|---2-2-3-2-----|---2-2-3-2-----|---2-2-3-2-----||-----------2-4-|-----------2-4-|-----------2-4-|-----------7-6-||---------------|---------------|---------------|---------------||---------------|---------------|---------------|---------------||---------------|---------------|---------------|---------------| x2
(Guitar 2)
|------------| |---||------------| |---||----6-----7-| |---||-7--6--4--7-| |-7-||-7--4--4--5-| |-7-||-5-----2----| x2 |-5-|
VERSE: [Leggere i saluti ke ti scrivo..]
(Qst pezzo nn c'è ma l'ho provato e torna bene..)|---------------------------||---------------------------||---------------------------||-----7------6------4-----2-||---7------7------4-----2---||-5------4------2-----0-----|
PRE-CHORUS: CHORUS: [Quanti..] [Ma stasera nn c'è...] [Domani ripartirò..]["Tatata"..]
|-7-| |-------------| |------------| |------------||-9-| |-------------| |------------| |------------| |-9-| |----1--------| |----6-----7-| |----6-----7-||---| |-4--2--12--7-| |-7--6--4--7-| |-7--6--4--7-||---| |-4--2--12--7-| |-7--4--4--5-| |-7--4--4--5-| |---| |-2-----10--5-| |-5-----2----| x2 |-5-----2----|
VERSE: [Tele senza alcun colore...]
(Come al verso prima..)|---------------||---------------||-------------1-||11--7--7--4--2-||11--7--7--4--2-||9---5--4--2----|
PRE-CHORUS: CHORUS: [Forse è..] [Ma nn chiedo il xkè...] [Domani ripartirò..]
|-7-| |-------------| |------------| |---||-9-| |-------------| |------------| |---| |-9-| |----1--------| |----6-----7-| |---||---| |-4--2--12--7-| |-7--6--4--7-| |-7-||---| |-4--2--12--7-| |-7--4--4--5-| |-7-| |---| |-2-----10--5-| x2 |-5-----2----| x2 |-5-|
INTERLUDE:
|----------|--------|---------------||----------|--------|----3/2/3/2----||-13/14/13-|-9-11-9-|-2-----------2-||----------|--------|---------------||----------|--------|---------------||----------|--------|---------------|
|-------------|-------------------------------12||-------------|-12-10-12--14-12-14--15-14-15----||-1--1/2--7/9-|---------------------------------||-------------|---------------------------------||-------------|---------------------------------||-------------|---------------------------------|
PRE-CHORUS: [Sognami ke io farò lo stesso..]
|-------------| |------||-------------| |------||----1--------| |----1-||-4--2--12--7-| |-4--2-||-4--2--12--7-| |-4--2-||-2-----10--5-|x3 |-2----|
CHORUS: [Domani ripartirò..]
|------------| |---||------------| |---| |----6-----7-| |---||-7--6--4--7-| |-7-||-7--4--4--5-| |-7-| |-5-----2----| x2 |-5-|
Please rate this tab:
x1.0