Foo Fighters - Razor tab version 2

Hey guys, this tab was originally posted by another member, Andrew Biles. I have 
just rearranged it so it's a bit easier to follow.

Drop D tuning

|------||------||------||------||-5p0--||-----0| x32
|----------------------------------------------------||----------------------------------------------------||----------------------------------------------------||-----------4p0---7p0---12p0----11p0---14p0---12p0---||-5p0---7p0------------------------------------------||-----0---------0-----0-------0------0------0------0-| x1
|------------------------------------------------------||------------------------------------------------------||------------------------------------------------------||-------------4p0---7p0---12p0---11p0---14p0---12p0----||-4p0---7p0--------------------------------------------||-----0-----0-----0-----0------0------0------0------0--| x11
|------||------||------||------||-7p0--||-----0| x8
|------||------||------||------||-6p0--||-----0| x8
|-----------------------------------------||-----------------------------------------||-----------------------------------------||9p0---7p0---5p0---4p0---5p0---7p0---9p0--||-----------------------------------------||----0-----0-----0-----0-----0-----0-----0|
|------||------||------||------||-7p0--||-----0| x17
|------||------||------||------||-9p0--||-----0| x8
|-----------------------------------------||-----------------------------------------||-----------------------------------------||9p0---7p0---5p0---4p0---5p0---7p0---9p0--||-----------------------------------------||----0-----0-----0-----0-----0-----0-----0|
|------||------||------||------||-7p0--||-----0| x9
|------------------------------------------------------||------------------------------------------------------||------------------------------------------------------||-------------4p0---7p0---12p0---11p0---14p0---12p0----||-4p0---7p0--------------------------------------------||-----0-----0-----0-----0------0------0------0------0--| x10
|------||------||------||------||-7p0--||-----0| x8
|------||------||------||------||-6p0--||-----0| x8
|-----------------------------------------||-----------------------------------------||-----------------------------------------||9p0---7p0---5p0---4p0---5p0---7p0---9p0--||-----------------------------------------||----0-----0-----0-----0-----0-----0-----0|
|------||------||------||------||-7p0--||-----0| x17
|------||------||------||------||-9p0--||-----0| x8
|-----------------------------------------||-----------------------------------------||-----------------------------------------||9p0---7p0---5p0---4p0---5p0---7p0---9p0--||-----------------------------------------||----0-----0-----0-----0-----0-----0-----0|
|------||------||------||------||-7p0--||-----0| x9
|-------||-------||-------||-------||-11p0--||------0| x8
|------||------||------||------||-9p0--||-----0| x8
|-------||-------||-------||-------||-11p0--||------0| x8
|------||------||------||------||-9p0--||-----0| x8
|-------||-------||-------||-------||-11p0--||------0| x8
|------||------||------||------||-9p0--||-----0| x8
|------||------||------||------||-7p0--||-----0| x16
|------------------------------------------------------||------------------------------------------------------||------------------------------------------------------||-------------4p0---7p0---12p0---11p0---14p0---12p0----||-4p0---7p0--------------------------------------------||-----0-----0-----0-----0------0------0------0------0--| x8
|------||------||------||------||-7p0--||-----0| x8
|------||------||------||------||-9p0--||-----0| x8
|-----------------------------------------||-----------------------------------------||-----------------------------------------||9p0---7p0---5p0---4p0---5p0---7p0---9p0--||-----------------------------------------||----0-----0-----0-----0-----0-----0-----0|
|------||------||------||------||-7p0--||-----0| x9
|------||------||------||------||-7p0--||-----0| x8
|------||------||------||------||-9p0--||-----0| x8
|-----------------------------------------||-----------------------------------------||-----------------------------------------||9p0---7p0---5p0---4p0---5p0---7p0---9p0--||-----------------------------------------||----0-----0-----0-----0-----0-----0-----0|
|------||------||------||------||-7p0--||-----0| x9
|------------------------------------------------------||------------------------------------------------------||------------------------------------------------------||-------------4p0---7p0---12p0---11p0---14p0---12p0----||-4p0---7p0--------------------------------------------||-----0-----0-----0-----0------0------0------0------0--| x2
|--------------------------||--------------------------||--------------------------||-10p0---9p0---7p0---9p0---||--------------------------||------0-----0-----0-----0-| x2
|--------------------------------------------------||--------------------------------------------------||--------------------------------------------------||-10p0---9p0---7p0---5p0---4p0---5p0---4p0---2p0---||--------------------------------------------------||------0-----0-----0-----0-----0-----0-----0-----0-|
|--------------------------||--------------------------||--------------------------||-10p0---9p0---7p0---9p0---||--------------------------||------0-----0-----0-----0-| x6
|-------------------------------------------------------||-------------------------------------------------------||-------------------------------------------------------||-10p0---9p0---7p0---5p0---4p0---2p0---------2p0---0----||--------------------------------------3p0---------5----||------0-----0-----0-----0-----0-----0-----0-----0------|
Tap to rate this tab
 
# A B C D E F G H I J K L M N O P Q R S T U V W X Y Z